Tried And True (Solo) Tab por Between The Buried And Me

tablatura Ukulele sin acordes.

Añadir esta tab a su SongBook
Tablature / ChordsFont size: A- A A+

¿ No sabe cómo leer una tablatura o un acorde ?

curso de ukulele

a-------------------7--5--3--2--------5---------------5---|
E----------5--3--1--------------------0----1-----3r1--x---|
d-------------------------------------2---------------2---|
g----5--4-----------------------------2---------------2---|

a-------------------7--5--3--2--------5-6---5-6---5-6---3--5--3------------|
E----------5--3--1---------------------------------------------------------|
d--------------------------------------------------------------------------|
g----5--4---------------------------------------------------------2---0----|

a-------------------7--5--3--2---------5---------5-------------|
E----------5--3--1---------------------0--0--1---0--3--1--0----|
d--------------------------------------2---------2-------------|
g----5--4------------------------------2---------2-------------|

a-------------------7--5--3--2---------5-6--3--5-6--5----5-6--3--5-6---5-|
E----------5--3--1-------------------------------------------------------|
d------------------------------------------------------------------------|
g----5--4----------------------------------------------------------------|
S
a-----------------------------------------------------------------------------------------|
E---------------------------------------------------------------5---5---5---5---5---------|
d---5---2--4---------------2---------5---5---5---5---5---4--2-----------------------5--2--|
g--------------5--5--5--5-----4------------------------------ - --------------------------|

 

Comentarios (0)
Ningún comentario :(
¿Necesitas ayuda, un consejo para compartir o simplemente quieres hablar sobre esta canción? Comience la discusión

Debes iniciar sesión para unirte a la discusión
o Registrarse

 

Acerca de esta canción

No hay información por esta canción.