Tilikum (Intro) Tab por Benjamin Francis Leftwich

tablatura Ukulele sin acordes.

Añadir esta tab a su SongBook
Tablature / ChordsFont size: A- A A+

¿ No sabe cómo leer una tablatura o un acorde ?

curso de ukulele

A |---------------1-----------------2---------------2------------------------|
E |---3---1-------------4-------1-------4-------1----------------------------|
C |-----------2--------------------------------------------------------------|
G |-----0---0---0---0-------0---------------0--------------------------------|

A |---------------1-----------------2---------------2------------------------|
E |---3---1---------------------1---------------1----------------------------|
C |-----------2---------4---------------4------------------------------------|
G |-----0---0---0---0-------0---------------0--------------------------------|

A |---------------1-----------------2---------------2------------------------|
E |---3---1---------------------1---------------1----------------------------|
C |-----------2---------6---------------6------------------------------------|
G |-----0---0---0---0-------0---------------0--------------------------------|

A |---------------2---------------2---------------2--------------4---------------4---|
E |---4-------1---------------1---------------1---------------1--------------1-------|
C |-------------------6---------------4---------------4--------------4---------------|
G |-------0---------------0---------------0---------------0--------------0-----------|

 

Comentarios (0)
Ningún comentario :(
¿Necesitas ayuda, un consejo para compartir o simplemente quieres hablar sobre esta canción? Comience la discusión

Debes iniciar sesión para unirte a la discusión
o Registrarse

 

Acerca de esta canción

No hay información por esta canción.