Atlas Hands Tab por Benjamin Francis Leftwich

3 Acordes utilizados en la canción: Em, C, G

Añadir esta tab a su SongBook
Tablature / ChordsFont size: A- A A+

¿ No sabe cómo leer una tablatura o un acorde ?

curso de ukulele

#Hello, I was looking for the Tabs of Atlas Hands but there was none, so i made my own, Amaizing song really, Enjoy ! ^^

Intro:

Em Em G G C C G G
A|--2-------2--------3--------2---------------|
E|--3-------3--------0--------3---------------|
C|--4-------2--------0--------2---------------|
G|--0-------0--------0--------0---------------|

Em Em G G C C? C C?
A|--2-------2--------5--------5---------------|
E|--3-------3--------0--------0---------------|
C|--4-------2--------0--------0---------------|
G|--0-------0--------0--------0---------------| 1x

Em Em G G C C G G
Take me to the docks, there's a ship without a name
Em Em G G C C?
It is sailing to the middle of the sea
EM EM G G C C G G
The water there is deeper than anything you've ever seen
Em Em G G C C?
...Jump right in and swim until you freeze.

Chorus:
A7 A7 Em Em C C G G
A|---0-------2---------3--------2-------------|
E|---2-------3---------0--------3-------------|
C|---2-------4---------0--------2-------------|
G|---0-------0---------0--------0-------------|

A7 A7 Em Em C C? G G
A|---0------2----------5--------2-------------|
E|---2------3----------0--------3-------------|
C|---2------4----------0--------2-------------|
G|---0------0----------0--------0-------------| 2X


A7 A7 Em Em C C G G
I will remember your face
A7 A7 Em Em C C?
'Cause I am still in love with that place
A7 A7 Em Em C C G G
But when the stars are the only things we share
A7 A7 Em Em C C?
Will you be there?



(repeat the begining rift)

Em Em G G C C G G
Money came like rain to your hands while you were waiting
Em Em G G C C?
For that cold long promsie to appear
Em Em G G C C G G
People in the churches started singing above their hands
Em Em G G C C?
They say "My God is a good God and he cares"


Chorus:
A7 A7 Em Em C C G G
A|---0-------2---------3--------2-------------|
E|---2-------3---------0--------3-------------|
C|---2-------4---------0--------2-------------|
G|---0-------0---------0--------0-------------|

A7 A7 Em Em C C? G G
A|---0------2----------5--------2-------------|
E|---2------3----------0--------3-------------|
C|---2------4----------0--------2-------------|
G|---0------0----------0--------0-------------| 4X

I will remember your face

'Cause I am still in love with that place

When the stars are the only things we share

Will you be there?

I've got a plan

I've got an atlas in my hands

I'm gonna turn when I listen to the lessons that I've learned

Em Em G G C C G G
A|--2-------2--------3--------2---------------|
E|--3-------3--------0--------3---------------|
C|--4-------2--------0--------2---------------|
G|--0-------0--------0--------0---------------|

Em Em G G C C? C C?
A|--2-------2--------5--------5---------------|
E|--3-------3--------0--------0---------------|
C|--4-------2--------0--------0---------------|
G|--0-------0--------0--------0---------------| 1x

 

Comentarios (0)
Ningún comentario :(
¿Necesitas ayuda, un consejo para compartir o simplemente quieres hablar sobre esta canción? Comience la discusión

Debes iniciar sesión para unirte a la discusión
o Registrarse

 

Acerca de esta canción

No hay información por esta canción.