Fur Elise Tab por Beethoven, Ludwig Van

tablatura Ukulele sin acordes.

ImprimirAñadir esta tab a su SongBook
Tablature / ChordsFont size: A- A A+

¿ No sabe cómo leer una tablatura o un acorde ?

curso de ukulele

fur elise



A---7-6-7-6-7-2-5-3-0------------2-----2-3---------
E--------------------------0-------0-4-------------
C------------------------0-------------------------
G----------------------0---------------------------

A----7-6-7-6-7-2-5-3-0----------2---3-2-0----
E--0------------------------0-----0----------
C-------------------------0------------------
G-----------------------0--------------------


A----2-3-5-7----8-7-5------------------
E--------------------------------------
C--------------------------------------
G------------0-------------------------


A-----7-5-3----5-3-2-----7-6-7-6-7-2-5-3-0-----0--2---
E------------0-------------------------------0--------
C---5--------------------------------------0----------
G-----------------------------------------------------

A----------2-3--------7-6-7-6-7-2-5-3-0------------
E------0-4---------0-------------------------------
C--------------------------------------------------
G--------------------------------------------------

A-------0---2------3-2--0--------------------------
E-----0---------0----------------------------------
C---0----------------------------------------------
G--------------------------------------------------

 

Comentarios (1)
Debes iniciar sesión para unirte a la discusión
o Registrarse

 

plant_mom_two avatar
I love it
31 Jan 2020
Acerca de esta canción

No hay información por esta canción.