Technicolor Eyes Tab por Backseat Goodbye

tablatura Ukulele sin acordes.

Añadir esta tab a su SongBook
Tablature / ChordsFont size: A- A A+

¿ No sabe cómo leer una tablatura o un acorde ?

curso de ukulele

capo on first fret 

intro/verse/chorus
A----5---5---5---5-----|
E--3---3---3---3-------|
C----------------------|
G----4---4---4---4-----|

A----5---5---5---5-----|
E----------------------|
C--0---0---0---0-------|
G----4---4---4---4-----|


(here's how to play the small fills)
A----5---5---5---7p5---|
E--3---3---3---3-------|
C----------------------|
G----4---4---4---4---4-|

A----5---5---5---5-----5-|
E------------5p0---5p0---|
C--0---0-----------------|
G----4---4---4-----------|

 

Comentarios (0)
Ningún comentario :(
¿Necesitas ayuda, un consejo para compartir o simplemente quieres hablar sobre esta canción? Comience la discusión

Debes iniciar sesión para unirte a la discusión
o Registrarse

 

Acerca de esta canción

No hay información por esta canción.