Do I Wanna Know? (Intro) Tab por Arctic Monkeys

tablatura Ukulele sin acordes.

ImprimirAñadir esta tab a su SongBook
Tablature / ChordsFont size: A- A A+

¿ No sabe cómo leer una tablatura o un acorde ?

curso de ukulele

A|--------------------6h8--3h5---1-3-5-3---1-3-5-5----|
E|-----6-----------6----------------------------------|
C|-5-7---7----5-7-----------------------------------7-|
G|----------------------------------------------------|

 

Comentarios (1)
Debes iniciar sesión para unirte a la discusión
o Registrarse

 

uwotm8 avatar
flag for US(ISO2) (Spokane)
oops i messed up, it should be
|--6h8-6--3h5-3--|
|----------------|
|----------------|
|----------------|
05 Sep 2013
Acerca de esta canción

No hay información por esta canción.