The Wedding Song Tab por Angus And Julia Stone

tablatura Ukulele sin acordes.

ImprimirAñadir esta tab a su SongBook
Tablature / ChordsFont size: A- A A+

¿ No sabe cómo leer una tablatura o un acorde ?

curso de ukulele

Verse                                                      
A|----3---2-32-0-3--0--3--|-----3-----3-----3--2--0-|
E|------------------------|-0-1---1-0---0------3----| x2
C|--0---0-----------------|---------------2---------|
G|----0-----0----2-----2--|-----0-----0-----2--0----|


Chorus

A|----3-----3----2-----2--|---3-----3-------------|
E|------------3----3-3----|-1---1-1----1---1-0----| x2
C|--0---0-0---------------|--------------------2--|
G|----0-----0----0-----0--|---2-----2----0--------|

 

Comentarios (0)
Ningún comentario :(
¿Necesitas ayuda, un consejo para compartir o simplemente quieres hablar sobre esta canción? Comience la discusión

Debes iniciar sesión para unirte a la discusión
o Registrarse

 

Acerca de esta canción

No hay información por esta canción.