Hush (Riff) Tab por Angus And Julia Stone

tablatura Ukulele sin acordes.

ImprimirAñadir esta tab a su SongBook
Tablature / ChordsFont size: A- A A+

¿ No sabe cómo leer una tablatura o un acorde ?

curso de ukulele

A|---------5--------------5--------------3--------------3-----
E|---2-------2------2-------2------0-------0------0-------0---
C|-2-----2--------2-----2--------0-----0--------0-----0-------
G|-----0-------0------0-------0------0-------0------0-------0-
H H ~
A|-2-----0-2------------0-2----0-2-----2-2-----------0-2------||
E|-3--------------0-0--------------------------3--------------||
C|---2------2---2----------2-------2------2------2-------2----||
G|-----0------0-------0------0-------0------0------0-------0--||
~ ~
A|------------------------
E|-----2----------0-------
C|-----2----------0-------
G|-----0----------0-------

A|-2-----2-5--------------3------2-----2-5-----2-----2-5------------||
E|------------------0-------0---------------------------------------||
C|-2-2-------2----0-----0--------2-2-------2---2-2-------2----------||
G|-----0-------0------0-------0------0-------0-----0-------0--------||

A|-2------------------------7------0-----0-5------0-----0-2----------||
E|---3------2-3------3-------3--------------------------------------||
C|-2---2--2-----2--2-----2--------2-2-------2------2-------2--------||
G|-11---------------9---5-------5------2-------2--4---2-------2------||

 

Comentarios (0)
Ningún comentario :(
¿Necesitas ayuda, un consejo para compartir o simplemente quieres hablar sobre esta canción? Comience la discusión

Debes iniciar sesión para unirte a la discusión
o Registrarse

 

Acerca de esta canción

No hay información por esta canción.