Party Hard Tab por Andrew W.K.

tablatura Ukulele sin acordes.

Añadir esta tab a su SongBook
Tablature / ChordsFont size: A- A A+

¿ No sabe cómo leer una tablatura o un acorde ?

curso de ukulele

"When it's time to party we will party hard"

INTRO:
a|---------------------------------------
E|---------------------------------------
d|444444444444444444444444444444444444444 - For a while!
g|---------------------------------------

INTRO LEAD:
a|---------------------------------------
E|--0--0--0-----0--0--0-2-4--------------
d|---------------------------4-----------
g|-1--2--4--899--1--2--4-----------------

VERSE:
a|-------2-000---------------------------
E|-------------4444-22222----------------
d|-44444---------------------------------
g|------------------------6-44444-889----

a|-------2-000---------------------------
E|-------------4444-22222----------------
d|-44444---------------------------------
g|------------------------6-44-89-------- Both these x2

VERSE 2:
a----------------------------
E----------------------------
d------4-------4------4---4--
g---9----9--7----7--6---6----

a----------------------------
E----------------------------
d------4------4-----4----4---
g---7----7--6---6-5---9------

a-----------------------------------------
E---8-0-8-7-0-7-6-0-5-0----7777-777-7-----
d-----------------------------------------
g-------------------------------------8-9-

PRE - CHORUS:
a------------------------------555---
E------------------------------------
d--4444444---------4444444-----------
g----------2222222---------222-------

a-------------------------------7--
E----------------------------------
d--4444444---------4444444---------
g----------2222222---------22-4----

CHORUS:
a----------------------------2-6-7--
E-----------------------------------
d--444-----444-----444--------------
g------222-----222-----222----------

a----------------------------2-6-7--
E-----------------------------------
d--444-----444-----444--------------
g------222-----222-----222----------

Order of the song:

Intro/Intro Lead
Verse
Verse #2
Pre-Chorus
Chorus
Intro/Intro Lead
Verse
Verse #2
Pre-Chorus
Chorus
Chorus

 

Comentarios (0)
Ningún comentario :(
¿Necesitas ayuda, un consejo para compartir o simplemente quieres hablar sobre esta canción? Comience la discusión

Debes iniciar sesión para unirte a la discusión
o Registrarse

 

Acerca de esta canción

No hay información por esta canción.