Bobby Tab por Alex G

5 Acordes utilizados en la canción: G, D, C, Am, Em

Añadir esta tab a su SongBook
Tablature / ChordsFont size: A- A A+

¿ No sabe cómo leer una tablatura o un acorde ?

curso de ukulele

A|----------------------|----5-----------------|
E|------------------0---|------------------0---|
C|----------------2-----|----------------2-----|
G|-4--5-4--0-2--0-----0-|-4-----4-0-2--0-----0-|

A|----------------------|----5----------------|
E|------------------0---|---------------------|
C|----------------2-----|---------------------|
G|-4--5-4--0-2--0-----0-|-4-----4-0-2--4-2--0-|


verse 1
G G D D
Bobby's just a friend of mine
C C
He's on his back
G G D D
I'm on his mind
G G D D
He wakes me when he goes to work
C C
His hands are cold
G G D D
His breath is smoke

Am Am C C
I'd leave him for you G G D D
If you want me to x3

verse 2
G G D D
Do you forget when we first met
C C
You grabbed my hand
G G D D
I tore your dress
G G D D
I felt things I cannot express
C C
But I lost my way
G G D D
I made my mess


Am Am C C
I'd clean it for you
D D G G
If you want me to x3

Bridge
Em Em D D
But I know what you're doing
Em Em D D
I know what you're doing
C C G G
I know you
D D G G
I know you
C C G G D D Em Em
I do I do I tell you what



A|----------------------|----5-----------------|
E|------------------0---|------------------0---|
C|----------------2-----|----------------2-----|
G|-4--5-4--0-2--0-----0-|-4-----4-0-2--0-----0-|

A|----------------------|----5----------------|
E|------------------0---|---------------------|
C|----------------2-----|---------------------|
G|-4--5-4--0-2--0-----0-|-4-----4-0-2--4-2--0-|


verse 3
G G D D
I paint pictures of my heart
C C G G D D
The colors blue and purple start
G G D D
To bleed into an endless dark
C C G G D D
It's only you it's only you


Am Am C C
I'd burn them for you G G D D If you want me to

Em Em D D
But I know what you're doing
Em Em D D
I know what you're doing
C C G G
I know you
D D G G
I know you
C C G G D D Em Em
I do I do I tell you what


A|----------------------|----5-----------------|
E|------------------0---|------------------0---|
C|----------------2-----|----------------2-----|
G|-4--5-4--0-2--0-----0-|-4-----4-0-2--0-----0-|

A|----------------------|----5----------------|
E|------------------0---|---------------------|
C|----------------2-----|---------------------|
G|-4--5-4--0-2--0-----0-|-4-----4-0-2--4-2--0-|

 

Comentarios (1)
Debes iniciar sesión para unirte a la discusión
o Registrarse

 

lillianaff avatar
any special tuning for this? or just standard?
09 Jul 2020
Acerca de esta canción

No hay información por esta canción.