God Called In Sick Today Tab por Afi

tablatura Ukulele sin acordes.

Añadir esta tab a su SongBook
Tablature / ChordsFont size: A- A A+

¿ No sabe cómo leer una tablatura o un acorde ?

curso de ukulele

A|--------------------------------------------------|
E|--3-3---3-3---3-3-1-1---1-1---1-1-----------------|
C|----------------------------------2-2---2-2---2-2-|
G|------3-----3---------2-----2---------2-----2-----|

A|--------------------------------------------------|
E|------------------3-3---3-1---3-3-1-1---1-1---1-1-|
C|--3-3---3-3---3-3---------------------------------|
G|------3-----3---------3-----3---------2-----2-----|

A|--------------------------------------------------|
E|--------------------------------------------------|
C|--2-2---------2-2-3-3---3-3---3-3-----------------|
G|------2-3-2-----------3-----3---------------------|

A|--------------------------------------------------|
E|--3-3---3-3---3-3-1-1---1-1---1-1-----------------|
C|----------------------------------2-2---2-2---2-2-|
G|------3-----3---------2-----2---------2-----2-----|

A|--------------------------------------------------|
E|------------------3-3---3-1---3-3-1-1---1-1---1-1-|
C|--3-3---3-3---3-3---------------------------------|
G|------3-----3---------3-----3---------2-----2-----|

A|--------------------------------------------------|
E|----------------------------------3-3-3-3-3-3-3-3-|
C|--2-2---------2-2-3-3---3-3---3-3-----------------|
G|------2-3-2-----------3-----3-----3-3-3-3-3-3-3-3-|

A|--------------------------------------------------|
E|--1-1-1-1-1-1-1-1---------------------------------|
C|------------------2-2-2-2-2-2-2-2-3-3-3-3-3-3-3-3-|
G|--2-2-2-2-2-2-2-2-2-2-2-2-2-2-2-2-3-3-3-3-3-3-3-3-|

A|--------------------------------------------------|
E|--3-3-3-3-3-3-3-3-1-1-1-1-1-1-1-1-----------------|
C|----------------------------------2-2-2-2-2-2-2-2-|
G|--3-3-3-3-3-3-3-3-2-2-2-2-2-2-2-2-2-2-2-2-2-2-2-2-|

A|---------------------|
E|---------------------|
C|--3-3-3-3-3-3-3-3----|
G|--3-3-3-3-3-3-3-3----|
A|--1---1-1-3-3-3-3-5---5-5-3-3-3-3-1---1-1-3-3-3-3-|
E|------------------3---3-3-1-1-1-1-----------------|
C|--5---5-5-7-7-7-7-7---7-7-5-5-5-5-5---5-5-7-7-7-7-|
G|--3---3-3-5-5-5-5-----------------3---3-3-5-5-5-5-|
A|--5---5-5-3-3-3-3-1-------------------------------|
E|--3---3-3-1-1-1-1---------------------------------|
C|--7---7-7-5-5-5-5-5-------------------------------|
G|------------------3-------------------------------|

A|--------------------------------------------------|
E|--3-3---3-3---3-3-1-1---1-1---1-1-----------------|
C|----------------------------------2-2---2-2---2-2-|
G|------3-----3---------2-----2---------2-----2-----|

A|--------------------------------------------------|
E|------------------3-3---3-1---3-3-1-1---1-1---1-1-|
C|--3-3---3-3---3-3---------------------------------|
G|------3-----3---------3-----3---------2-----2-----|

A|--------------------------------------------------|
E|----------------------------------3-3-3-3-3-3-3-3-|
C|--2-2---------2-2-3-3---3-3---3-3-----------------|
G|------2-3-2-----------3-----3-----3-3-3-3-3-3-3-3-|

A|--------------------------------------------------|
E|--1-1-1-1-1-1-1-1---------------------------------|
C|------------------2-2-2-2-2-2-2-2-3-3-3-3-3-3-3-3-|
G|--2-2-2-2-2-2-2-2-2-2-2-2-2-2-2-2-3-3-3-3-3-3-3-3-|

A|--------------------------------------------------|
E|--3-3-3-3-3-3-3-3-1-1-1-1-1-1-1-1-----------------|
C|----------------------------------2-2-2-2-2-2-2-2-|
G|--3-3-3-3-3-3-3-3-2-2-2-2-2-2-2-2-2-2-2-2-2-2-2-2-|

A|---------------------|
E|---------------------|
C|--3-3-3-3-3-3-3-3----|
G|--3-3-3-3-3-3-3-3----|

 

Comentarios (0)
Ningún comentario :(
¿Necesitas ayuda, un consejo para compartir o simplemente quieres hablar sobre esta canción? Comience la discusión

Debes iniciar sesión para unirte a la discusión
o Registrarse

 

Acerca de esta canción

No hay información por esta canción.