Take On Me Tab por A-ha

tablatura Ukulele sin acordes.

7.3/10
ImprimirAñadir esta tab a su SongBook

Tablature / Chords (Canción entera)

Font size: A- A A+

Artista: 
Año:  1985
Key: desconocidotablatura (sin acordes )
tonalidad original: +0.5 mediotono (afinación original)
progresión de acordes arreglados para el ukulele.
A|----------------|--------0-0-1-3-|
E|--------------1-|--1---1---------|
C|----4-0---0-----|----------------|
G|0-0-------------|----------------|

A|1-1-1-----------|----------------|
E|------1---------|--------1-1---1-|
C|----------3-----|----------------|
G|--------------0-|--0---0-----0---|

⇢ ¿No estás contento con esta tab? Ver 4 otra(s) versión(es)

Tab por , 09 dic 2018

Comentarios (0)

Ningún comentario :(
¿Necesitas ayuda, un consejo para compartir o simplemente quieres hablar sobre esta canción? Comience la discusión

Comentar
¡Comparte tus patrones de rasgueo, acordes o consejos para tocar este tab!

Top Tabs & Acordes de A-ha, ¡no te pierdas estas canciones!

Acerca de esta canción: Take On Me

No hay información por esta canción.

¿Has versionado a Take On Me con tu Ukelele? Comparte tu trabajo!
Submit a cover