Rivers Of Babylon Tab uke di Sublime

3 Accordi usati nel brano: G, D, C

8.8/10
StampaAggiungi Tab al tuo album

Tablature / Chords (Brano intero)

Font size: A- A A+

Artista: 
Album: 
Anno:  2005
Difficoltà: 
3
(Principiante)
Chiave: G, EmAccordi e tablature
|------2-2-3--2--2-2--2-2-2-----|
|--3-3--------3--3-3--3-3-3-----|
|-------------2--2-2--2-2-2-----|
|-------------0--0-0--0-0-0-----|

|------2-2-3--2--2-2--2-2-2-----|
|--3-3--------3--3-3--3-3-3-----|
|-------------2--2-2--2-2-2-----|
|-------------0--0-0--0-0-0-----|

|--2-2-3-3-2--5--5-5--5-5-5-----|
|-------------2--2-2--3-2-2-----|
|-------------2--2-2--2-2-2-----|
|-------------2--2-2--2-2-2-----|

|----------------2--2-2--2-2-2--|
|----------------3--3-3--3-3-3--|
|----------------2--2-2--2-2-2--|
|--2-2-4-4--2----0--0-0--0-0-0--|

verse:
G G
By the rivers of babylon
G G
Where he sat down
D D
and there he wept
G G
when he remembered Zion


chorus:

oh for the wicked
G G
carry us away captivity
C C
required from us a song
G G
how can we sing King Alfa's song
D D G G
In a strange land

G G D D
so let the words of our mouth
G G D D
and the meditation of our heart
G G D D
be acceptable in thy sight
G G
over i

|------2-2-3--2--2-2--2-2-2-----|
|--3-3--------3--3-3--3-3-3-----|
|-------------2--2-2--2-2-2-----|
|-------------0--0-0--0-0-0-----|

|------2-2-3--2--2-2--2-2-2-----|
|--3-3--------3--3-3--3-3-3-----|
|-------------2--2-2--2-2-2-----|
|-------------0--0-0--0-0-0-----|

|--2-2-3-3-2--5--5-5--5-5-5-----|
|-------------2--2-2--3-2-2-----|
|-------------2--2-2--2-2-2-----|
|-------------2--2-2--2-2-2-----|

|----------------2--2-2--2-2-2--|
|----------------3--3-3--3-3-3--|
|----------------2--2-2--2-2-2--|
|--2-2-4-4--2----0--0-0--0-0-0--|

verse:
G G
By the rivers of babylon
G G
Where he sat down
D D
and there he wept
G G
when he remembered Zion

chorus:

oh for the wicked
G G
carry us away captivity
C C
required from us a song
G G
how can we sing King Alfa's song
D D G G
In a strange land

G G
how can we sing King Alfa's song
D D G G
in a strange land

Tab uke di , 20 lug 2013

Commenti Tab (0)

Ancora nessun commento :(
Hai bisogno di aiuto, vuoi condividere un consiglio o vuoi semplicemente parlare di questo brano? Inizia la discussione!

Qualcosa da dire?
Condividi i tuoi schemi di pennata, accordi o consigli per suonare questa scheda!
oppure Registrati

Top Tabs e accordiby Sublime, non perdere queste canzoni!

Info brano: Rivers Of Babylon

Nessuna informazione su questo brano.

Hai fatto una cover di Rivers Of Babylon sul tuo Ukulele? Condividi il tuo lavoro!
Invia una cover