Pangarap Lang Kita Tab uke di Parokya Ni Edgar

14 Accordi usati nel brano: C, D, Em, E, A, G, G/F#, F#m, A/G#, C#, D#, Fm, G#, G#/G

Vota la canzone!
StampaAggiungi Tab al tuo album

Tablature / Chords (Brano intero)

Font size: A- A A+

Artista: 
Anno:  2014
Difficoltà: 
5.21
(Intermedio)
Chiave: sconosciutoAccordi e tablature
# main riff

C C D D Em Em

A|-----3-------5--2--T--2-----------------|
E|---0---0---2----3--A--3--3--------------|
C|-0-------2------4--P--4----2------------|
G|----------------------------------------|

C C D D Em Em
A|-----3-------5--7--T--7-----------------|
E|---0---0---2----3--A--3--3--------------|
C|-0-------2------2--P--2----2------------|
G|----------------------------------------|

C C D D G G - G/F# G/F# - Em Em D D

A|-----3-------5-----------------------|
E|---0---0---2------3---2---0----------|
C|-0-------2------2--------------2-----|
G|--------------------0---0---0-----0--|




C C D D G G G G

A|-----3-------5--2--T--2-----------------|
E|---0---0---2----3--A--3--3--------------|
C|-0-------2------2--P--2----2-0----------|
G|----------------------------------------|

use capo on 1st Fret

[Verse]

C C D D Em Em
Mabuti pa sa lotto,
C C D D Em Em
may pag-asang manalo.
C C D D Em Em
Di tulad sa'yo,
C C D D G G
Imposible.
C C D D Em Em
Prinsesa ka,
C C D D Em Em
Ako'y dukha..
C C D D G G - G/F# G/F# - Em Em
Sa TV lang naman kasi
C C D D G G
May mangyayari


[Chorus]

C C D D Em Em
At kahit mahal kita,
C C D D Em Em
Wala akong magagawa..
C C D D G G - G/F# G/F# - Em Em D D
Tanggap ko oh, aking sinta..
C C D D G G A A
Pangarap lang kita..


[Instrumental]

D D E E F#m F#m
D D E E A A - A/G# A/G# - F#m F#m
D D E E A A


[Verse 2]

D D E E F#m F#m
Ang hirap maging babae,
D D E E F#m F#m
kung torpe yung lalaki.
D D E E F#m F#m
Kahit may gusto ka,
D D E E A A
di mo masabi..
D D E E F#m F#m
Hindi ako yung tipo,
D D E E F#m F#m
nagbibigay motibo.
D D E E A A - A/G# A/G# - F#m F#m
Conservative ako kaya,
D D E E A A
di maaari..


[Chorus]

D D E E F#m F#m
At kahit mahal kita
D D E E F#m F#m
Wala akong magagawa.
D D E E A A - A/G# A/G# - F#m F#m E E
Tanggap ko, oh aking sinta..
D D E E A A
Pangarap lang kita..


[Instrumental]

D D E E F#m F#m
D D E E A A - A/G# A/G# - F#m F#m


[Chorus]

C# C# D# D# Fm Fm
At kahit mahal kita,
C# C# D# D# Fm Fm
Wala akong magagawa.
C# C# D# D# G# G# - G#/G G#/G - Fm Fm D# D#
Tanggap ko oh aking sinta,
C# C# D# D# G# G#
Pangarap lang kita.

Tab uke di , 29 dic 2017

Commenti Tab (0)

Ancora nessun commento :(
Hai bisogno di aiuto, vuoi condividere un consiglio o vuoi semplicemente parlare di questo brano? Inizia la discussione!

Qualcosa da dire?
Condividi i tuoi schemi di pennata, accordi o consigli per suonare questa scheda!
oppure Registrati

Top Tabs e accordiby Parokya Ni Edgar, non perdere queste canzoni!

Info brano: Pangarap Lang Kita

Nessuna informazione su questo brano.

Hai fatto una cover di Pangarap Lang Kita sul tuo Ukulele? Condividi il tuo lavoro!
Invia una cover