Peace Tab uke di Oar

Tab ukulele senza accordi.

StampaAggiungi Tab al tuo album
Tablature / ChordsFont size: A- A A+

Non sai come leggere una Tab o un accordo? Dai un'occhiata a queste lezioni di uke:

A|------5-----5------5----------|
E|----------------0-------------|
C|---2------2-----2-2-2-2-------|
G|------2------2-------2--------|

A|------5-----5------5----------|
E|----------------0-------------|
C|---1------1-----1-1-1-1-------|
G|------2------2-------2--------|

A|---2--5---2-5---2-252-2-------|
E|----------------0-------------|
C|------------------------------|
G|------2------2-------2--------|
H ~ ~ ~
A|---0-- 0----------------------|
E|-----0---0----0---3--2-0------|
C|---2--------------------------|
G|---0-2------2-----------------|

 

Commenti Tab (0)
Ancora nessun commento :(
Hai bisogno di aiuto, vuoi condividere un consiglio o vuoi semplicemente parlare di questo brano? Inizia la discussione!

Devi essere connesso per partecipare alla discussione
oppure Registrati

 

Info brano

Nessuna informazione su questo brano.