Laid To Rest Tab uke di Lamb Of God

Tab ukulele senza accordi.

StampaAggiungi Tab al tuo album
Tablature / ChordsFont size: A- A A+

Non sai come leggere una Tab o un accordo? Dai un'occhiata a queste lezioni di uke:

# Tune the g string down 1/2 step to f#
# Tune the C C string down 1 1/2 steps to A A
# Asterisks are pinched harmonics

-------------------------------------------------
-------6-5-3-------8-5-6-------------------------
-0-0-0-------0-0-0-------0-0-0-6-3-2-5-6-5-8-5-6-
-------------------------------------------------

-------------------------------------------------
-------6-5-3-------8-5-6-------------------------
-0-0-0-------0-0-0-------0-0-0-6-3-2-5-6-5-8-5-6-
-------------------------------------------------

-------------------------------------------------
-------6-5-3-------8-5-6-------------------------
-0-0-0-------0-0-0-------0-0-0-6-3-2-5-6-5-8-5-6-
-------------------------------------------------

-------4h5p4---------8-7-5-4h5p4---4-----------------
-------------6-------------------6---5-6-3-5---3-----
-0-0-0---------0-0-0-------------------------6---5-6-
-----------------------------------------------------

-----------------------------------------------
-----------------------------------------------
-2-2-2-2-3*---2-2-2-2-3*---2-2---2-2-3-2-5-4-3-
-----------------------------------------------

-----------------------------------------------
-----------------------------------------------
-2-2-2-2-3*---2-2-2-2-3*---2-2---2-2-3-2-3-2-1-
-----------------------------------------------

-------------------------------------------
-0-----------0-----------0-----0---0-------
-0-0-0-0-0---0-0-0-0-0---0-0---0---0-0-0-0-
-------------------------------------------

-------------------------------------------
-0-----------0-----------0-----0---0-------
-0-0-0-0-0---0-0-0-0-0---0-0---0---0-0-0-0-
-------------------------------------------

-------------------------------------------
-0-----------0-----------0-----0---0-------
-0-0-0-0-0---0-0-0-0-0---0-0---0---0-0-0-0-
-------------------------------------------

-------------------------------------------
-0-----------0-----------0-----0---0-------
-0-0-0-0-0---0-0-0-0-0---0-0---0---0-0-0-0-
-------------------------------------------

-------------------------------------------------
-------6-5-3-------8-5-6-------------------------
-0-0-0-------0-0-0-------0-0-0-6-3-2-5-6-5-8-5-6-
-------------------------------------------------

-------------------------------------------------
-------6-5-3-------8-5-6-------------------------
-0-0-0-------0-0-0-------0-0-0-6-3-2-5-6-5-8-5-6-
-------------------------------------------------

-------------------------------------------------
-------6-5-3-------8-5-6-------------------------
-0-0-0-------0-0-0-------0-0-0-6-3-2-5-6-5-8-5-6-
-------------------------------------------------

-------4h5p4---------8-7-5-4h5p4---4-----------------
-------------6-------------------6---5-6-3-5---3-----
-0-0-0---------0-0-0-------------------------6---5-6-
-----------------------------------------------------

-12---10-13-12---8-6-5---3-6-5---1-0-
-------------------------------------
-12---10-13-12---8-6-5---3-6-5---1-0-
-------------------------------------

----------------------------------------------------
----------------------------------------------------
-0---0-6-3-5---0---0-1-3-1---0---0-6-3-5---0-1-3-5*-
----------------------------------------------------

----------------------------------------------------
----------------------------------------------------
-0---0-6-3-5---0---0-1-3-1---0---0-6-3-5---0-1-3-5*-
----------------------------------------------------

----------------------------------------------------
----------------------------------------------------
-0-0-0-6-3-5---0-0-0-1-3-1---0-0-0-6-3-5---0-1-3-5*-
----------------------------------------------------

----------------------------------------------------
----------------------------------------------------
-0-0-0-6-3-5---0-0-0-1-3-1---0-0-0-6-3-5---0-1-3-5*-
----------------------------------------------------

-----------------------------------------------
-----------------------------------------------
-2-2-2-2-3*---2-2-2-2-3*---2-2---2-2-3-2-5-4-3-
-----------------------------------------------

-----------------------------------------------
-----------------------------------------------
-2-2-2-2-3*---2-2-2-2-3*---2-2---2-2-3-2-3-2-1-
-----------------------------------------------

-------------------------------------------------
-------6-5-3-------8-5-6-------------------------
-0-0-0-------0-0-0-------0-0-0-6-3-2-5-6-5-8-5-6-
-------------------------------------------------

-------------------------------------------------
-------6-5-3-------8-5-6-------------------------
-0-0-0-------0-0-0-------0-0-0-6-3-2-5-6-5-8-5-6-
-------------------------------------------------

-------------------------------------------------
-------6-5-3-------8-5-6-------------------------
-0-0-0-------0-0-0-------0-0-0-6-3-2-5-6-5-8-5-6-
-------------------------------------------------

-------4h5p4---------8-7-5-4h5p4---4-----------------
-------------6-------------------6---5-6-3-5---3-----
-0-0-0---------0-0-0-------------------------6---5-6-
-----------------------------------------------------

-12---10-13-12---8-6-5---3-6-5---1-0-
-------------------------------------
-12---10-13-12---8-6-5---3-6-5---1-0-
-------------------------------------

----------------------------------------------------
----------------------------------------------------
-0---0-6-3-5---0---0-1-3-1---0---0-6-3-5---0-1-3-5*-
----------------------------------------------------

----------------------------------------------------
----------------------------------------------------
-0---0-6-3-5---0---0-1-3-1---0---0-6-3-5---0-1-3-5*-
----------------------------------------------------

----------------------------------------------------
----------------------------------------------------
-0-0-0-6-3-5---0-0-0-1-3-1---0-0-0-6-3-5---0-1-3-5*-
----------------------------------------------------

----------------------------------------------------
----------------------------------------------------
-0-0-0-6-3-5---0-0-0-1-3-1---0-0-0-6-3-5---0-1-3-5*-
----------------------------------------------------

-------------------------------------------
-------------------------------------------
-1-1-1-1-1---1-1-1-1-1---1-1---1---1-1-1-1-
-------------------------------------------

-------------------------------------------
-------------------------------------------
-1-1-1-1-1---1-1-1-1-1---1-1---1---1-1-1-1-
-------------------------------------------

-------------------------------------------
-0-----------0-----------0-----0---0-------
-0-0-0-0-0---0-0-0-0-0---0-0---0---0-0-0-0-
-------------------------------------------

-------------------------------------------
-0-----------0-----------0-----0---0-------
-0-0-0-0-0---0-0-0-0-0---0-0---0---0-0-0-0-
-------------------------------------------

-------------------------------------------
-0-----------0-----------0-----0---0-------
-0-0-0-0-0---0-0-0-0-0---0-0---0---0-0-0-0-
-------------------------------------------

-------------------------------------------
-0-----------0-----------0-----0---0-------
-0-0-0-0-0---0-0-0-0-0---0-0---0---0-0-0-0-
-------------------------------------------

-0-------0---0-------0---1-------1---1-------
---------------------------------------------
---5-0-5---5---5-0-5---5---5-1-5---5---5-1-5-
---------------------------------------------

---------------------------------------------
-------------------0-------0---0-------0---0-
-8-7-5-7-8-7-8-7-0---5-1-5---1---5-1-5---1---
---------------------------------------------

-0-------0---0-------0---1-------1---1-------
---------------------------------------------
---5-0-5---5---5-0-5---5---5-1-5---5---5-1-5-
---------------------------------------------

---------------------------------------------
-------------------0-------0---0-------0---0-
-8-7-5-7-8-7-8-7-0---5-1-5---1---5-1-5---1---
---------------------------------------------

-0-------0---0-------0---1-------1---1-------
---------------------------------------------
---5-0-5---5---5-0-5---5---5-1-5---5---5-1-5-
---------------------------------------------

---------------------------------------------
-------------------0-------0---0-------0---0-
-8-7-5-7-8-7-8-7-0---5-1-5---1---5-1-5---1---
---------------------------------------------

-0-------0---0-------0---1-------1---1-------
---------------------------------------------
---5-0-5---5---5-0-5---5---5-1-5---5---5-1-5-
---------------------------------------------

---------------------------------------------
-------------------0-------0---0-------0---0-
-8-7-5-7-8-7-8-7-0---5-1-5---1---5-1-5---1---
---------------------------------------------

-------------------------------------------
-0-----------0-----------0-----0---0-------
-0-0-0-0-0---0-0-0-0-0---0-0---0---0-0-0-0-
-------------------------------------------

-------------------------------------------
-0-----------0-----------0-----0---0-------
-0-0-0-0-0---0-0-0-0-0---0-0---0---0-0-0-0-
-------------------------------------------

-------------------------------------------
-0-----------0-----------0-----0---0-------
-0-0-0-0-0---0-0-0-0-0---0-0---0---0-0-0-0-
-------------------------------------------

-------------------------------------------
-0-----------0-----------0-----0---0---0---
-0-0-0-0-0---0-0-0-0-0---0-0---0---0-0-0---
-------------------------------------------

 

Commenti Tab (0)
Ancora nessun commento :(
Hai bisogno di aiuto, vuoi condividere un consiglio o vuoi semplicemente parlare di questo brano? Inizia la discussione!

Devi essere connesso per partecipare alla discussione
oppure Registrati

 

Info brano

Nessuna informazione su questo brano.