You'll Never Know Tab par VersaEmerge

Tablature Ukulélé sans accords.

Ajouter cette tab à votre SongBook
Tablature / ChordsFont size: A- A A+

Vous ne savez pas comment lire une tablature ou un accord ?
Ne manquez pas nos cours:

Comment lire une tablature pour ukulélé
Comment lire un accord

A|--------|
E|-4---6--|
C|-3---5--|
G|-5---7--|

A|-7---7---7---7---7---7---7---778---8---8---8---8---8---8---88--|
E|-3-xx3-xx3-xx3-xx3-xx3-xx3-xx335-xx5-xx5-xx5-xx5-xx5-xx5-xx55--|
C|---------------------------------------------------------------|
G|-4-xx4-xx4-xx4-xx4-xx4-xx4-xx445-xx5-xx5-xx5-xx5-xx5-xx5-xx55--|

A|-7---7---7---7---7---7---7---778---8---8---88-88-84-4-4-4-----|
E|-3-xx3-xx3-xx3-xx3-xx3-xx3-xx335-xx5-xx5-xx55-55-5--------|
C|--------------------------------------------------2222----|
G|-4-xx4-xx4-xx4-xx4-xx4-xx4-xx445-xx5-xx5-xx55-55-54444----|
S S S S S S S S S S S
A|----------------------------------------------------------------------------------|
E|---------------------------------------------5------5------5----------------------|
C|-4-5-----4-5-----4-5-----4-5----4-5-----4-5----4-5----4-5-----4-5-----4-5----4-5--|
G|------5-------5-------4-------4------4-----------------------------4-------5------|
A|-7---2--0--|
E|-7---2--0--|
C|-9---4--2--|
G|-----------|
A|-7---5--0--|
E|-7---5--0--|
C|-9---7--2--|
G|-----------|

 

Commentaires (0)
Aucun commentaire :(
Besoin d'aide, envie de partager une astuce, ou simplement de parler de cette chanson? Commencez la discussion!

Vous devez être connecté pour participer à la discussion
ou Inscription

 

A propos de cette chanson

Pas d'information sur cette chanson.