Lost Tree Tab par VersaEmerge

Tablature Ukulélé sans accords.

Ajouter cette tab à votre SongBook
Tablature / ChordsFont size: A- A A+

Vous ne savez pas comment lire une tablature ou un accord ?
Ne manquez pas nos cours:

Comment lire une tablature pour ukulélé
Comment lire un accord

A|-5--5--1-|
E|-2--0--1-|
C|-2--2----|
G|-2--2--3-|
S P S S P P P S P
A|-----------------------------------------------|
E|----------------5--6--2-----5--2----5--6--2-|
C|------------------------4-2-----------------|
G|-11--14--7--9--10-------------------7----------| S P P S S P P S P S S P S P P P S P P S
A|---------------------------------------------------------------------------------------------|
E|-------6----6----------6----6-------6----------6-------6----6----6-------6----6-------|
C|--------------------------------------------------------------------------------------|
G|-7--9----10----9--10--12----9----7--9----7--9--10----9--10----12----9----7--9----10----7--9--|
A|-5--8---|
E|-0--8---|
C|-9--10---|
G|-7------|

A|--------------------6---6---6----|
E|-4---4---4--5-------------|
C|----------------6--6--6---|
G|-13---13---13--14---11--11--11---|

A|--------------------6---6--6---------|
E|-4---4---4--5-----------------|
C|----------------6--6-6--4-4---|
G|-13---13---13--14---11--11-11--9-9---|

A|---------5-------------|
E|----------------------|
C|-4--4--4-5---2--2--2--|
G|-9--9--9-10---7--7--7--|

A|---------5-------------|
E|----------------------|
C|-4--4--4-5---2--2--2--|
G|-9--9--9-10---7--7--7--|
~ P S P S P
A|--------------------------------------|
E|-5--------5--------5--------5-------|
C|------------------------------------|
G|-------7-----7--9-----9--10-----10----|
~
A|--------------------------------------------------------|
E|-5------------------------6--------(X4)-6--------(X4)---|
C|--------------------------------------------------------|
G|------------------------------4--7----------4--7--------|
H s
A|---------------------------------------------------------------|
E|--------------------------------------------------------|
C|--------------------------------------------------------|
G|-11--------------------11--11--11--11--11-----------10---8-----|
~ ~ ~ ~ ~
A|--------------------54-------------------------------------------------|
E|----------------5-------6-6-6-6----6-----6----6---------6-----6---6----|
C|-----------------------------------------------------------------------|
G|-9----7----5---------------------7----7-----7----7----7---7----7-------|
S S S S S S S ~
A|-------54----------------------------------------------------------------------------|
E|--5--------6-------------------------------------6--6--5--5--3-5--6--6---------------|
C|-------------------------------------------------------------------------------------|
G|---------------4------------5-5-7-7--7--5--5--5-------------------------5--5--7--7---|

A|------------7-----------------------------------------------|
E|-----1---------------------------------------------|
C|---------------------------------------------------|
G|-7-----11-7--7-7-7-7-117-11-7-11--11-7-13-7-13---11--14-----|

 

Commentaires (0)
Aucun commentaire :(
Besoin d'aide, envie de partager une astuce, ou simplement de parler de cette chanson? Commencez la discussion!

Vous devez être connecté pour participer à la discussion
ou Inscription

 

A propos de cette chanson

Pas d'information sur cette chanson.