Fixed At Zero Tab par VersaEmerge

Tablature Ukulélé sans accords.

ImprimerAjouter cette tab à votre SongBook
Tablature / ChordsFont size: A- A A+

Vous ne savez pas comment lire une tablature ou un accord ?
Ne manquez pas nos cours:

Comment lire une tablature pour ukulélé
Comment lire un accord

A|--------7---------4------------------------|
E|---3---------3--------2-----2-----2---5----|
C|-----4---------4--------4-----4-----4------|
G|-4---------5--------5-----5-----5--------4-|

A|-----------------------------------------------------------------------------------------------------------|
E|----------(x5)----------(x6)----------(x5)----------(x2)-----------------------------------|
C|-------------------------------------------------------------------------------------------|
G|-16--12--9-------17--12--9-------16--12--9-------17--12--9-------17--11--9--17--11--9--17--11--9--12--14---|
~ ~
A|------------|
E|----------|
C|----------|
G|--12---10---|
~ ~
A|------------|
E|----------|
C|----------|
G|--12---16---|

A|-------------------------------------------------------------------------6---------------|
E|--------3-3-3-3---7-7-7-7-------3-3-3-3---8--7--5------------6--3---6--|
C|--4444--------------------4444---------------------(x--)-6-(x-)---(x-)-|
G|--9999--12-12-12-12---16-16-16-16-9999--12-12-12-12---17--16--14----11---10------12------|

A|-----------------------------------------------------------------------------------|
E|--------3-3-3-3---7-7-7-7-------3-3-3-3---8--7--5--------7----10--|
C|--4444--------------------4444---------------------(x--)----(x--)-|
G|--9999--12-12-12-12---16-16-16-16-9999--12-12-12-12---17--16--14----11---16--------|

A|--------7---------4-----------------------|
E|---3---------3--------2------2-5----2-5---|
C|-----4---------4--------4-----------------|
G|-4---------5--------5------5------5-------|

A|--------|
E|--7-8---|
C|--4-4---|
G|--9-9---|

A|--------|
E|--7-8---|
C|--4-4---|
G|--9-9---|

A|--------|
E|--7-8---|
C|--4-4---|
G|--9-9---|
A|--3-5-7--|
E|------7--|
C|--7-9-9--|xG|--5-7----|
A|--7777--7777--7-7-7-7--7777--7777--7--7--7-(x16-)-2---87---|
E|-----------------------------------------7----------------|
C|--11111111--11111111--12-12-12-12--11111111--11111111--12--12--9-------6-(x--)--|
G|--9999--9999--9-9-9-9--9999--9999--9--9----------4--------|

 

Commentaires (0)
Aucun commentaire :(
Besoin d'aide, envie de partager une astuce, ou simplement de parler de cette chanson? Commencez la discussion!

Vous devez être connecté pour participer à la discussion
ou Inscription

 

A propos de cette chanson

Pas d'information sur cette chanson.