Fire Tab par VersaEmerge

Tablature Ukulélé sans accords.

Ajouter cette tab à votre SongBook
Tablature / ChordsFont size: A- A A+

Vous ne savez pas comment lire une tablature ou un accord ?
Ne manquez pas nos cours:

Comment lire une tablature pour ukulélé
Comment lire un accord

~                   S  S    ~ S  S               
A|--------------------------------------------------------------|
E|-3-----3-----3----3-----3---3-3-------------------------------|
C|----6-----6----------6----------6------6--4---6-----33333333--|
G|------------------------------------4------------5------------|
S S ~
A|---------|
E|---------|
C|--6--4---|
G|---------|

A|---------2---|
E|---3---3-----|
C|-1-----------|
G|-----0-----0-|

A|-----2-----2----------2-----------2-----------2----|
E|---3---3-0------3---3-------3---3-------3---3------|
C|-4-----------0------------1-----------1------------|
G|------------------0-----0-----0-----0-----0-----0--|
S S ~
A|---------|
E|---------|
C|--6--4---|
G|---------|

A|-----------|
E|-3--5-7--5-|
C|-0--2-4--2-|
G|-5--7-9--7-|

A|-0-------2--|
E|-0-------2--|
C|------------|
G|-2-------4--|
~ S S ~~S S ~
A|-7---6---7---6---7-----7---6---7----7--7--6--------6-------6-------|
E|-------------------------------------------------8---|
C|-7--6--7--6--7----7--6--7---7-7-6---11--6--4---6------|
G|-12--11--12--11--12----12--11--12---12-12-11---16--11--9---11--5---|
~ S S ~~S S
A|-7---6---7---6---7-----7---6---7----7--7--6--------6-------6------------------------|
E|-------------------------------------------------8--------------------|
C|-7--6--7--6--7----7--6--7---7-7-6---11--6--4---6-----3-3-3-3-3-3-3-3---|
G|-12--11--12--11--12----12--11--12---12-12-11---16--11--9---11--5--8-8-8-8-8-8-8-8---|

 

Commentaires (0)
Aucun commentaire :(
Besoin d'aide, envie de partager une astuce, ou simplement de parler de cette chanson? Commencez la discussion!

Vous devez être connecté pour participer à la discussion
ou Inscription

 

A propos de cette chanson

Pas d'information sur cette chanson.