Twinkle Twinkle Little Star Tab par Traditional

Tablature Ukulélé sans accords.

10/10
ImprimerAjouter cette tab à votre SongBook

Tablature / Chords (Chanson entière)

Font size: A- A A+

Artiste: 
Année:  2015
Tonalité: inconnuTablature (sans accords)
A|----------------------------------------|
E|----------------------------------------|
C|------0--0--7--7--9--9--7---------------|
G|----------------------------------------|



A|----------------------------------------|
E|----------------------------------------|
C|------5--5--4--4--2--2--0---------------|
G|----------------------------------------|



A|----------------------------------------|
E|----------------------------------------|
C|------7--7--5--5--4--4--2---------------|
G|----------------------------------------|



A|----------------------------------------|
E|----------------------------------------|
C|------7--7--5--5--4--4--2---------------|
G|----------------------------------------|



A|----------------------------------------|
E|----------------------------------------|
C|------0--0--7--7--9--9--7---------------|
G|----------------------------------------|



A|------------------------3---------------|
E|----------------------------------------|
C|------5--5--4--4--2--2--0---------------|
G|----------------------------------------|

⇢ Cette tablature ne vous convient pas? Voir 2 autre(s) version(s)

Tab par , 18 oct. 2016

Commentaires (0)

Aucun commentaire :(
Besoin d'aide, envie de partager une astuce, ou simplement de parler de cette chanson? Commencez la discussion!

Commenter
Partagez vos rythmiques, vos accords ou vos astuces pour jouer cette tablature!

Top Tabs et Accords de Traditional, ne manquez pas ces chansons!

A propos de cette chanson: Twinkle Twinkle Little Star

Pas d'information sur cette chanson.

As-tu repris Twinkle Twinkle Little Star sur ton Ukulélé ? Partage ta reprise!
Ajouter une reprise