Santa Monica Tab par Theory Of A Deadman

Tablature Ukulélé sans accords.

Ajouter cette tab à votre SongBook
Tablature / ChordsFont size: A- A A+

Vous ne savez pas comment lire une tablature ou un accord ?
Ne manquez pas nos cours:

Comment lire une tablature pour ukulélé
Comment lire un accord

|-2-|-2-|-5-|-----|--2--|--5--|------|-----|---|
|-0-|-3-|-0-|--0--|--2--|--3--|--5---|--3--|-0-|
|---|-2-|-2-|--0--|-----|--7--|--2---|--0--|-0-|
|-0-|-0-|-2-|--0--|--4--|--4--|--7---|--5--|-0-|

--------------2-|--------------2-----|
-----3--5-----0-|-----3--5-----3-----|
----------2-----|----------2---2-----|
--4-----------0-|--4-----------0-----|

--------------0-|--------------------|
-----3--5-----2-|-----3--5-----0-----|
----------2---2-|----------2---0-----|
--4-----------2-|--4-----------0-----|

-----5-------5---|-----5-------5---|-----5-------5---|-----5-------5---|
-----------------|-----------------|-----------------|-----------------|
-----------------|-----------------|-----------------|-----------------|
---4---4---4---4-|---4---4---4---4-|---4---4---4---4-|---4---4---4---4-|

-2--------------|-2-|-9----|
-0----3--5------|-3-|---*-|
-----------2----|-2-|-7---|
-0-4------------|-0-|-9-*-|

-----5-------5---|-----5-------5---|-----5-------5---|-----5-------5---|
-----------------|-----------------|-----------------|-----------------|
-----------------|-----------------|-----------------|-----------------|
---4---4---4---4-|---4---4---4---4-|---4---4---4---4-|---4---4---4---4-|
-2-2-2--4-4-4--5-5-5--7-7-7-|--2-2-2--4-4-4--5-5-5--5-5-5----9||-2~--|
-0-0-0--2-2-2--3-3-3--5-5-5-|--0-0-0--2-2-2--3-3-3------------||-0~--|
-4-4-4--6-6-6--7-7-7--9-9-9-|--4-4-4--6-6-6--7-7-7--9-9-9---x-||-4---|
----------------------------|-----------------------7-7-7-----||-----|
-2~--------------|-5~--------------|-5~--------------|-3~--------------|
-0~--------------|-3~--------------|-----------------|-----------------|
-4---------------|-7---------------|-9---------------|-7---------------|
-----------------|-----------------|-7~--------------|-5~--------------|

-2--------------|-2-----------------|
-0-----3--5-----|-3-----3--5--------|
------------2---|-2----------2------|
-0--4-----------|-0--4--------------|

-5--------------|-------------------|
-2-----3--5-----|-0-----------------|
-2----------2---|-0-----------------|
-2--4-----------|-0-----------------|

 

Commentaires (1)
Vous devez être connecté pour participer à la discussion
ou Inscription

 

lunalilove avatar
flag for US(ISO2) (Banavides)
What tuning is this? Is this to be played in GCEA?
27 Jul 2012
A propos de cette chanson

Pas d'information sur cette chanson.