The Witch Tab par The Sonics

Tablature Ukulélé sans accords.

Notez la chanson !
ImprimerAjouter cette tab à votre SongBook

Tablature / Chords (Chanson entière)

Font size: A- A A+

Artiste: 
Album:  inconnu
Tonalité: inconnuTablature (sans accords)
A|-5-5-6-6-5---|--------------|--5-5-6-6-5---|--------------|---5-5-6-6-5-1-1-1-|
E|-3-3-424-3---|--3-3x4-4-3---|--3-3x4-4-3---|--5-5x6-6-5---|---3-3-414-3-1-1-1-|
C|-7-7-8-8-7---|--0-0-1-1-0---|--7-7-8-8-7---|--2-2-3-3-2---|---7-7-8-8-7-------|
G|-------------|--5-5-6-6-5---|--------------|--7-7-8-8-7---|-------------3-3-3-|

A|-----0-------|
E|-3---0---5---|
C|-0-------2---|
G|-5---2---7---|

Commentaires (1)

Commenter
Partagez vos rythmiques, vos accords ou vos astuces pour jouer cette tablature!
Filtrer par:
angelicaslane821 avatar
The wait is killing me. Can we finally get to the good part? f1nd me on angelicaslane_mooo_com change _ to dot
15 Jul 2024
Commentaire

Top Tabs et Accords de The Sonics, ne manquez pas ces chansons!

A propos de cette chanson: The Witch

Pas d'information sur cette chanson.

As-tu repris The Witch sur ton Ukulélé ? Partage ta reprise!
Ajouter une reprise