First Love (Intro) Tab par The Maccabees

Tablature Ukulélé sans accords.

Ajouter cette tab à votre SongBook
Tablature / ChordsFont size: A- A A+

Vous ne savez pas comment lire une tablature ou un accord ?
Ne manquez pas nos cours:

Comment lire une tablature pour ukulélé
Comment lire un accord

A|------------0-0-0-0-0-0-2-2-2-2-2-2-2-2-2-2-2----------------------------|
E|--------0-0---------0-0-----------------1-1-1----------------------------|
C|0-0-0-0-0-0---------------------2-2--------------------------------------|
G|-------------------------------------------------------------------------|

A|--------------------------------------------------------------------------|
E|-----6--------6----------------------------------------------------------|
C|-------------------------------------------------------------------------|
G|--11------7---------------------------------------------------------------|

A|---2--------|
E|---1--------|
C|------------|
G|------------|

 

Commentaires (0)
Aucun commentaire :(
Besoin d'aide, envie de partager une astuce, ou simplement de parler de cette chanson? Commencez la discussion!

Vous devez être connecté pour participer à la discussion
ou Inscription

 

A propos de cette chanson

Pas d'information sur cette chanson.