Concerning Hobbits Tab par The Lord Of The Rings

Tablature Ukulélé sans accords.

5.8/10
ImprimerAjouter cette tab à votre SongBook

Tablature / Chords (Chanson entière)

Font size: A- A A+

Année:  2001
Tonalité: inconnuTablature (sans accords)
G --------0-----------------------------
C --0-2-4---4-2-0---2-------------5-4-2-
E --------------------3-5-8-7-3-0-------
A --------------------------------------

G-------0-----0---0------------------2-------------
C-0-2-4---4-2---2-----4----------------------2-0---
E-----------------------3-5-5-5--5-3---3-1-0-------
A--------------------------------------------------

Commentaires (0)

Aucun commentaire :(
Besoin d'aide, envie de partager une astuce, ou simplement de parler de cette chanson? Commencez la discussion!

Commenter
Partagez vos rythmiques, vos accords ou vos astuces pour jouer cette tablature!

Top Tabs et Accords de The Lord Of The Rings, ne manquez pas ces chansons!

A propos de cette chanson: Concerning Hobbits

Pas d'information sur cette chanson.

As-tu repris Concerning Hobbits sur ton Ukulélé ? Partage ta reprise!
Ajouter une reprise