Punk Rock Love Tab par The Casualties

Tablature Ukulélé sans accords.

Ajouter cette tab à votre SongBook
Tablature / ChordsFont size: A- A A+

Vous ne savez pas comment lire une tablature ou un accord ?
Ne manquez pas nos cours:

Comment lire une tablature pour ukulélé
Comment lire un accord

A|----0---0--------------------------------------------|
E|---------------4-4---4---5---5-------------5---------|
C|------4---4--1-----1---2-------2---------------------|
G|---------------------------4-----4-6--6--4-----------|

A|----0---0--------------------------------------------|
E|---------------4-4---4---5---5-------------5---------|
C|------4---4--1-----1---2-------2---------------------|
G|---------------------------4-----4-6--6--4-----------|

A|-----------------------------------------------------|
E|--5-5-4-0-4-5-5---5-4--5-5-4-0-4-5-5---5-4-----------|
C|-----------------------------------------------------|
G|----------------4--------------------4---------------|

A|-----------------------------------------------------|
E|----5-5-4-5-5-4-5-5---5-4--5-5-4-5-5-4-5-5---5-4-----|
C|-----------------------------------------------------|
G|--------------------4----------------------4---------|

A|---7-7-7-7--7-7-7-7--11--11--11--11---5-5-5-5--------|
E|---5-5-5-5-----------9--9--9--9----------------------|
C|---9-9-9-9--11-11-11-11--13--13--13--13---9-9-9-9----|
G|------------9-9-9-9---------------7-7-7-7------------|

 

Commentaires (0)
Aucun commentaire :(
Besoin d'aide, envie de partager une astuce, ou simplement de parler de cette chanson? Commencez la discussion!

Vous devez être connecté pour participer à la discussion
ou Inscription

 

A propos de cette chanson

Pas d'information sur cette chanson.