And I Love Her Tab par The Beatles

Tablature Ukulélé sans accords.

ImprimerAjouter cette tab à votre SongBook
Tablature / ChordsFont size: A- A A+

Vous ne savez pas comment lire une tablature ou un accord ?
Ne manquez pas nos cours:

Comment lire une tablature pour ukulélé
Comment lire un accord

A|-----------------5----3----6------------|
E|----------------------------------------|
C|----5-----------------------------------|
G|--------0---1---------------------------|



A|-----------------5 / 3------------------|
E|----------------------------------------|
C|----5-----------------------------------|
G|--------0---1---------------------------|



A|-----------------5----3----6------------|
E|----------------------------------------|
C|----5-----------------------------------|
G|--------0---1---------------------------|



A|----6---3-------------------------------|
E|------------4--3 / 1--------------------|
C|----------------------------------------|
G|----------------------------------------|



A|----------------------------------------|
E|----------------------------------------|
C|----5\3--5--7---------------------------|
G|----------------------------------------|

 

Commentaires (4)
Vous devez être connecté pour participer à la discussion
ou Inscription

 

Hootowlwhovian avatar
last note should be 8 not 7
16 Jan 2019
navalon avatar
flag for MX(ISO2) (san luis rio colorado)
amazing
09 Feb 2017
Dgja90 avatar
Fixed:)
18 Dec 2016
raychull avatar
Great tab until the last bar. The last note is off.
17 Dec 2016
A propos de cette chanson

Pas d'information sur cette chanson.