Jessica Tab par The Allman Brothers Band

Tablature Ukulélé sans accords.

Ajouter cette tab à votre SongBook
Tablature / ChordsFont size: A- A A+

Vous ne savez pas comment lire une tablature ou un accord ?
Ne manquez pas nos cours:

Comment lire une tablature pour ukulélé
Comment lire un accord

P                          
|-----------------|-----------------|-----------------|----------------|
|--------5--------|-------------5---|--5--------------|-----------------|
|------4----------|-----------------|-----4---2-----2--4----------------|
|-----------6--7--|--9---7---6------|-----------1-----|-----------------|
H P
|--7--------------|-----------------|---------------7-|-----------------|
|--------5--------|----------5------|-----------------|--5--------------|
|------4----------|-------------4-2-|---2---1---2-----|-----------------|
|-----------6--7--|--6-7--6---------|-----------------|-----------------|
P
|-----------------|-----------------|-----------------|--7--------------|
|--5-----5--------|-------------5---|--5--------------|-----------------|
|------4----------|-----------------|-----4---2-----2-|-----------------|
|-----------6--7--|--9---7---6------|-----------6-----|-----------------|
H P
|--7--------------|-----------------|---------------7-|-----------------|
|--------5--------|----------5------|-----------------|-----------------|
|------4----------|-------------4-2-|---2-------2-----|-----------------|
|-----------6--7--|--6-7--6---------|--(-)--6---------|--2--------------|
H P H P
|-----------4--5--|----7---------4--|--7---7----------|
|-----------------|-------2---------|----2---2--5-----|
|-----------------|-----------------|-----------------|
|--2-4-2-4--------|-----------------|--------------4--|
P H P
|-----------------|-----------------|-----------------|--7--------7-----|
|-5------5--------|-------------5---|--5--------------|-------2---------|
|------4----------|-----------------|-----4---2-----2-|-----------------|
|-----------6--7--|--9---7---6------|-----------6-----|-----------------|
H P
|--7--------------|-----------------|---------------7-|-----------------|
|--------5--------|----------5------|-----------------|--5--------------|
|------4----------|-------------4-2-|---2-------2-----|-----------------|
|-----------6--7--|--6-7--6---------|--(-)--6---------|-----------------|
P H P
|-----------------|-----------------|-----------------|--7--------7-----|
|--5-----5--------|-------------5---|--5--------------|-------2---------|
|-(-)--4----------|-----------------|-----4---2-----2-|-----------------|
|-----------6--7--|--9---7---6------|-----------6-----|-----------------|
H P
|--7--------------|-----------------|---------------7-|-----------------|
|--------5--------|----------5------|-----------------|--5--------------|
|------4----------|-------------4-2-|---2-------2-----|-----------------|
|-----------6--7--|--6-7--6---------|--(-)--6---------|-----------------|
S S S
|-----------------|-----------------|-----------------|-----------------|
|--5-----5--------|-----------------|-----------------|----------5------|
|-(-)-------------|-----------------|--2----2---2---4-|--------------4--|
|-----------4--5--|----4--------4-5-|-----------------|--6--------------|
S
|-(-)-------------|-----------------|-----------------|-----------------|
|-------------2-3-|--3--------3--5--|----2------------|-------5---------|
|--4-------4------|-----------------|----------4--2---|--1--------------|
|-----------------|-----------------|-----------------|-----------------|
S
|-----------------|-----------------|-----------------|-----------------|
|---5-2-3-5-----5-|-----------------|-----------------|-----------------|
|-----------------|-----------------|--2-------2---4--|-----------2-----|
|-----------4-5---|-4--------4--5---|-----------------|---6-------------|
H P
|-----------------|-----------------|-----------------|------------------|
|----------2------|--3-------5------|-----------------|-----------------|
|--4--------------|-----------------|-----------------|-----------------|
|-----------------|-----------------|--4------7-------|--9-----11---9----|
P H P
|-----------------|-----------------|-----------------|--7--------7-----|
|--------5--------|-------------5---|--5--------------|-------2---------|
|------4----------|-----------------|-----4---2-----2-|-----------------|
|-----------6--7--|--9---7---6------|-----------6-----|-----------------|
H P
|--7--------------|-----------------|---------------7-|-----------------|
|--------5--------|----------5------|-----------------|--5--------------|
|------4----------|-------------4-2-|---2-------2-----|-----------------|
|-----------6--7--|--6-7--6---------|--(-)--6---------|-----------------|
P H H P
|-----------------|-----------------|-----------------|--7-------7---7--|
|--5-----5--------|-------------5---|--5--------------|-------2----2----|
|-(-)--4----------|-----------------|-----4---2-----2-|-----------------|
|-----------6--7--|--9---7---6------|-----------6-----|-----------------|
P S S P P
|--7--------------|-----------------|----------7------|-----------------|
|-----------5-----|-------5---------|-----------------|--5--------------|
|--------4--------|-----------4-2---|--2----2-----2---|-----------------|
|---------------6-|-7--6----------6-|----6----------6-|----------4------|

|-----------------|-----------------|-----------------|-----------------|
|-----------------|-----------------|--3-------5------|-----------------|
|----------2------|--4-------6------|-----------------|-----------------|
|--5--------------|-----------------|-----------------|--4-------5------|
H
|------------------|-----------------|
|-----------------|-----------------|
|-----------------|-----------------|
|--7-------11------|--9--------------|
|----------2----2-|-3----3--5--5--5-|-7----7--9----9--|-5--5--5--7--7--7-|
|-5--5--5---------|-----------------|-----------------|------------------|
|-----------------|-----------------|-----------------|------------------|
|-----------------|-----------------|-----------------|------------------|
H P
|-----------------|-----------------|-----------------|-----------------|
|-----------------|-----------------|-----------(--)f-|---f---fr--------|
|----------2---4--|-----------------|-----------------|-----------------|
|--4---5----------|---7-------------|-7--9--9----9----|-9---9-----7--9--|
P P P
|-----------------|-----------------|-----------------|-----------------|
|--(--)f----f--r--|-----------------|--5--------------|-------------5---|
|-----------------|-----------------|-----------------|-----------------|
|---9-----9-------|--9--7----7---7--|7----4-7--9--7-4-|-7--9--9--7------|
H
|-----------------|-----------------|-----------------|-----------------|
|--5-----5--------|--------5--------|------5----------|---5-------------|
|-----------------|-----------------|-----------------|-----------------|
|-----------4--7--|-7----7----4--7--|-7--9----4-7--7--|-7----4-7--9--9--|
P P P P
|-----------------|-----------------|-------------------|------------------|
|--5------------f-|---fr-------5----|---------------5---|----5-----5-------|
|-----------------|-----------------|-----------------6-|--6---------6---6-|
|-----4--7----9---|-9-----7--9----4-|7--9--7-4-7-4------|4------4------4---|
S P
|-----------------|-----------------|-----------------|-----------------|
|-5---------5-----|--5-------5-5--5-|-----5-----------|-5-5---5-----5---|
|---6--4-2----2---|----6-4-6--------|-4-6---------4-6-|---------4-6-----|
|---------4-----4-|-----------------|-------4---4-----|---------------4-|
P
|-----------------|-----------------|-----------------|-----------------|
|-----------------|-5-5---5-----5---|---------5-------|-----------------|
|-(-)-2--4--4-4-6-|---------4-6-----|-----4-6-----2---|-2-4-2---4---2-4-|
|--4--------------|---------------4-|---4-------4---4-|-------4---4-----|
P S H H
|-----------------|-----------------|-----------------|-----------------|
|-2-3-2---2---2---|--2---3--3---5---|-5----5------5---|--5----5----2-5--|
|-------4---4-----|-----------------|-----------------|-----------------|
|-----------------|-----------------|-----------------|-----------------|
P H P P H
|-----------------|-----------------|-----------------|-----------------|
|--2------2---3---|--3---2--2-------|--3--2-------2---|--------------5--|
|-----------------|-----------------|---------4-------|-2----2-2--4-----|
|-----------------|-----------------|-----------------|-----------------|
H P P P P
|-----------------|-----------------|-----------------|-----------------|
|-5---5-----------|-----------------|-----------------|---------------2-|
|(-)------2-4-2---|-4---2-4-2---4---|-2-4-2---4---2-4-|--2---4---2-4----|
|-------4-------4-|---4-------4---4-|-------4---4-----|----4---4--------|

|-----------------|-----------------|------------------|------------------|
|-2--3--5---------|(--)------f---fr-|------------5-----|------------5-----|
|-----------------|-----------------|------------------|------------------|
|-----------4--7--|-7---9--9---9----|-7--7--7--7----4--|-7--7--7--7----4--|
H
|------------------|-----------------|-----------------|-----------------|
|------------5-----|-----------------|-----------5-----|-----------------|
|------------------|-----------------|-----------------|-----------------|
|-7--7--9--9----4--|-7----7------7---|-7---7---7----4--|-7---7----7---7--|
P
|-----------------|-----------------|-----------------|-------------------|
|-------f------5--|-----------------|-----------5-----|-------------------|
|-----------------|-----------------|-----------------|-------------------|
|-9---9---9--9----|-7----7----7-----|-7---7---7----4--|7--9--7-4-9-4-7--9-|
P P P P P P
|-------------------|------------------|-------------------|-------------------|
|-------------------|------------------|-------------------|-------------------|
|-------------------|------------------|-------------------|-------------------|
|-7-4-9-4-7--9--7-4-|9-4-7--9--7-4-9-4-|7--9--7-4-9-4-7--9-|-7-4-9-4-7--9--7-4-|
P
|--------------------|-----------------|-----------------|--------------------|
|-------------------f|-r---f--r---f--r-|--f--r---f--r---f|-r---f--r---f--r---f|
|--------------------|-----------------|-----------------|--------------------|
|9-4-7--9--7-4-7--9--|---9------9------|9------9------9--|---9------9------9--|

|-----------------|-----------------|-----------------|-----------------|
|-r---f--r---f--r-|---f--r---f------|(--)----f----f---|--f--r---f--r---f|
|-----------------|-----------------|-----------------|-----------------|
|---9------9------|-9------9--------|-9----9----9-----|9------9------9--|
P P
|-----------------|-----------------|-----------------|-----------------|
|-r---f-r---------|-----------------|----5------------|--------------f--|
|-----------------|-----------------|-----------------|-----------------|
|---9-----7--9--7-|-7-----7-----7---|--7----4-7--9--7-|-7-----9----9----|
P S S H
|-----------------|------------------|----------------------|---------------------|
|(--)-5-----------|-----------------|-----------------|-----------------|
|-----------------|-----------------|-----------------|-----------------|
|-9-----7---9--7--|-7-----9-----11---|-11--11--12--12---11--|-11---11-----12--11--|
S H H
|---------------------|--------------------|---------------------|---------------------|
|(--)-------------|---f-------------|-----r-----------|-----------------|
|-----------------|-----------------|-----------------|-----------------|
|-11----11---11---12--|-12------12----12---|-12-----12---11--11--|----11---12---11--12-|
H P
|---------------------|--------------------|---------------------|--------------------|
|(--)-------------|---f--------r----|(--)-------------|-----------------|
|-----------------|-----------------|-----------------|-----------------|
|-12----11---11---12--|-12------12-----12--|-12----11---11--12---|-12----11--11----9--|
H
|--------------------|-------------------|--------------------|----------------------|
|-----------------|------f--------r-|--------f--------|(--)-----r----f--r-|
|-----------------|-----------------|-----------------|-------------------|
|-9----11---12---14--|-14--------14------|-14----14-----14----|-14----14-----14------|

|-----------------------|-----------------------|------------------|-----------------|
|-----------------|-----------------|-----------------|--------------5--|
|-----------------|-----------------|-----------------|-----------------|
|14--12--14--14--12--12-|11--11--11--11--11--12-|-9---11--7---9--7-|-7--4--4---4-----|
P P P P
|-----------------|------------------|-----------------|-------------------|
|-5---------------|-5--------5-------|----5---5---5----|5-----5--------5---|
|-----6--6---6----|---6--------6---6-|---------------6-|--------6--------6-|
|---------------4-|-----7-4------4---|-7---------------|---4------7-4------|
P P P P
|------------------|-------------------|-----------------|-----------------|
|5-----------------|5-----5--------5---|---------5-------|-----5-----------|
|-------------6--6-|--------6--------6-|--6--------6---6-|-------6---6-----|
|---4---4---4------|---4------7-4------|4---7-4------4---|7-4------4---7-4-|
P P P S S
|------------------|------------------|-----------------|-----------------|
|-5------------5---|-----5-------5----|5-------5--------|5------------5---|
|---6---6--------6-|-------6---6------|--6---6---6--4-6-|--6---6--------6-|
|-----4---7-4------|7-4------4------4-|----4------------|----4---7-4------|
P P P S P
|------------------|-----------------|------------------|-----------------|
|-----5--------5---|-----------------|------5-------5---|-------5-----5---|
|-------6--------6-|-----------------|--------6---6---6-|-4-2-----2-----6-|
|7-4------7-4------|--------%--------|-7-4------4-------|-----4-----4-----|

|-----------------|-----------------|-----------------|-----------------|
|-----5-------5---|-5---5-----------|---------2---2-3-|--3-5---5--------|
|-4-6---6---6-----|---------------2-|-2-4---4---------|-----------------|
|---------4-----4-|-------4-----4---|-----------------|-----------4---4-|
H H
|-------------------|-----------------|-----------------|-----------------|
|-----------------|-------5------5--|-5---------------|-----2-2---2-4---|
|-----------------|-----------------|----4-6-----4--2-|-2-4-----------4-|
|7--7--9--9--11--11-|-7---7----4------|-----------------|-----------------|
P H H
|-----------------|-----------------|-----------------|-----------------|
|---------5-------|--------------5--|-5---------------|-5---------------|
|-2-4-2-------2---|-----------------|----4-6-----4--2-|-----2-2---2-4-2-|
|-------4---4-----|-7-----4---------|-----------------|---4-------------|
P H H
|-----------------|-----------------|-----------------|-----------------|
|---------5-------|-----5--------5--|-5---------------|-----------------|
|-2-4-2-------2---|-----------------|----4-6-----4--2-|-----------------|
|-------4---4-----|-7------4--------|-----------------|--------%--------|
H P S P
|-----------------|-----------------|-----------------|-----------------|
|-----------------|-5---------------|--------------5--|------5----------|
|-----------------|---------------2-|--2--4---4-6-----|--------6---4--2-|
|--------%--------|----------4------|-(-)-------------|-7-4-------------|
P P S
|-----------------|-----------------|-----------------|-----------------|
|----2------------|-------5---------|----2--3--5------|-----------------|
|-4-----2--4--2---|-2-------6--4--2-|-4---------------|--------------2--|
|---------------4-|----4------------|------------4--5-|-4-------4-------|
H H
|-----------------|-----------------|-----------------|-----------------|
|-----------------|--------------5--|------------2--3-|-3---------3--5--|
|-2-------2----4--|-----------------|-4-------4-------|-----------------|
|-----------------|-6---------------|-----------------|-----------------|
S
|-----------------|-----------------|-----------------|-----------------|
|-2---------------|------5----------|-5---2-3-5-----5-|-----------------|
|----------4---2--|-1---------------|(-)--------------|--------------2--|
|-----------------|-----------------|-----------4-5---|-4--------4------|
H P
|-----------------|-----------------|-----------------|-----------------|
|-----------------|-----------------|---------2-------|-3-------5-------|
|-2--------2---4--|---4-------2-----|-4---------------|-----------------|
|-----------------|-6---6-----------|-----------------|-----------------|
S S
|-----------------|-----------------|-----------------|-----------------|
|-----------------|------f----r-----|(--)-----5-------|-----------------|
|-----------------|-----------------|-------4---------|---------------2-|
|-4------7--------|-9-------9-------|-9----------6-7--|-4-------4--5----|
S S H P H P
|-----------------|-----------------|-----------------|-7---7---7-----7-|
|-----------3-3-5-|-5---------------|-----------------|---2---2---------|
|-2---------------|-----------------|---2-------------|-----------------|
|-------4-4-------|-----------------|-6---6-----------|-----------------|
H P H P H P H P H P H P H P H P H
|-----------------|------------------|---------------------------------------------------------|
|-5-----5---------|-------------(--)|------------------------------------------|
|-----------------|-----------------|------------------------------------------|
|----4-----6-7--6-|-9--11--9------9--|14--16--14--16--14-11-14--16--16--14--16--14--16--14--16-|

 

Commentaires (0)
Aucun commentaire :(
Besoin d'aide, envie de partager une astuce, ou simplement de parler de cette chanson? Commencez la discussion!

Vous devez être connecté pour participer à la discussion
ou Inscription

 

A propos de cette chanson

Pas d'information sur cette chanson.