Chocolate Tab par The 1975

Tablature Ukulélé sans accords.

Ajouter cette tab à votre SongBook
Tablature / ChordsFont size: A- A A+

Vous ne savez pas comment lire une tablature ou un accord ?
Ne manquez pas nos cours:

Comment lire une tablature pour ukulélé
Comment lire un accord

A|----------2-2---2-2---2-2--------------2-2---2-2---2-2---------------------|
E|----0-0---0-0---2-2---0-0--------0-0---0-0---2-2---0-0---------------------|
C|---------------------------------------------------------------------------|
G|----2-2---1-1---4-4---1-1--------2-2---1-1---4-4---1-1---------------------|

A|---------------------------------------------------------------------------|
E|--------2-0-2-2-2---0-2-2-2---0-2-2-2---0----------------------------------|
C|---------------------------------------------------------------------------|
G|----2-1-----------1---------1---------1------------------------------------|

A|----2-2-2-2-2-2-2-2--2-2-2-2-2--2-2-2-2-2----------------------------------|
E|----0-0-2-0-2-2-2-0--0-2-2-2-0--0-2-2-2-0----------------------------------|
C|---------------------------------------------------------------------------|
G|----2-1-1-1-1-1-1-1--1-1-1-1-1--1-1-1-1-1----------------------------------|

A|----------2-2---2-2---2-2--------------2-2---2-2---2-2---------------------|
E|----0-0---0-0---2-2---0-0--------0-0---0-0---2-2---0-0---------------------|
C|---------------------------------------------------------------------------|
G|----2-2---1-1---4-4---1-1--------2-2---1-1---4-4---1-1---------------------|

 

Commentaires (0)
Aucun commentaire :(
Besoin d'aide, envie de partager une astuce, ou simplement de parler de cette chanson? Commencez la discussion!

Vous devez être connecté pour participer à la discussion
ou Inscription

 

A propos de cette chanson

Pas d'information sur cette chanson.