Summer Tab par Sum 41

8 Accords utilisés dans la chanson: D5,B5,Bm,G5,A5,D,G,A

Ajouter cette tab à votre SongBook
Tablature / ChordsFont size: A- A A+

Vous ne savez pas comment lire une tablature ou un accord ?
Ne manquez pas nos cours:

Comment lire une tablature pour ukulélé
Comment lire un accord

Intro
A|-12-12--12--10-10--10--8--8---8---10-8--|
E|-10-10--10--10-10--10--10-10--10--10-10-|
C|----------------------------------------| 6X
G|----------------------------------------|
# For Uke 2, after the second time being played, play each power chord once
D5 D5 B5 B5 or Bm Bm G5 G5 A5 A5
A|--5----2-----2----x----0--------|
E|--5----2-----2----3----0----------|
C|--2----x-----2----2----4--------|
G|--2----4-----4----0----2--------|

Fill
A|-5-x-x-7-x-x-9--9-109--5-x-x-7-x-x-9--9-1012--|
E|-5-x-x-7-x-x-9--9-109--5-x-x-7-x-x-9--9-1012--|
C|-2-x-x-4-x-x-6--6-7-6--2-x-x-4-x-x-6--6-7-9---|
G|-2-x-x-4-x-x-6--6-7-6--2-x-x-4-x-x-6--6-7-9---|

A|-5-x-x-7-x-x-9--9-109--5-x-x-7-x-x-9-9-7--7-7--|
E|-5-x-x-7-x-x-9--9-109--5-x-x-7-x-x-9-9-7--7-7--|
C|-2-x-x-4-x-x-6--6-7-6--2-x-x-4-x-x-6-6-4--4-4--|
G|-2-x-x-4-x-x-6--6-7-6--2-x-x-4-x-x-6-6-4--4-4--|

# Verse 1: play the power chords as shown in Uke 2 in intro
D D Bm Bm
It's far beyond your reach, it holds a place in time,
G G A A
Somewhere ahead is the back of the line.
D D Bm Bm G G A A
I can't relate to your mistakes, awkwardly speaking with nothing to say.

Fill

Verse 2
D D Bm Bm
Caught up in your life, excuses are so lame,
G G A A
You may be different but I'm still the same.
D D Bm Bm
The reasons that you thought, the intention that you caught,
G G A A
You say things are simple we both know they're not.

You can't let it go,
A|-7------------------10------|
E|-7------------------10------|
C|-4------------------7-------|
G|-4------------------7-------|

D D Bm Bm G G A A
Whoa.

You can't but I know.
A|-7------------------10-x/x/x/-----|
E|-7------------------10-x/x/x/-----|
C|-4------------------7--x/x/x/-----|
G|-4------------------7--x/x/x/-----|

D D Bm Bm G G A A D D Bm Bm G G A A
Whoa , Whoa you don't even know.

Chorus
D D Bm Bm G G A A
It's not in what you do, more in what you say. 3X
D D Bm Bm G G A A
It's not in what you do, what you do.

Fill 1 2X

Verse 3
D D Bm Bm G G
A A million questions asked, the remnants of the past.
AD
You've always been denied, but always by your side.
Bm Bm
I've always tried to, to understand you,
G G A A
the worlds not learning from you.

D D Bm Bm G G A A D D Bm Bm G G A A
Whoa. Whoa.

Chorus

 

Commentaires (0)
Aucun commentaire :(
Besoin d'aide, envie de partager une astuce, ou simplement de parler de cette chanson? Commencez la discussion!

Vous devez être connecté pour participer à la discussion
ou Inscription

 

A propos de cette chanson

Pas d'information sur cette chanson.