Heart Attack Tab par Sum 41

5 Accords utilisés dans la chanson: F#,C#,B,E,D#

Ajouter cette tab à votre SongBook
Tablature / ChordsFont size: A- A A+

Vous ne savez pas comment lire une tablature ou un accord ?
Ne manquez pas nos cours:

Comment lire une tablature pour ukulélé
Comment lire un accord

Tonalité originale : -0.5 demi-tons [ ? ]
Since the song is a half step down, here's how the chords should be played
F# F# C# C# B B E E
G#|--2---0---3---0--|
D#|--3---2---0---1--|
B |--2---2---0---0--|
F#|--0---2---0---2--|

Intro/Verses
F# F# C# C# B B
G#|--------10----------------10----------------10----------------10---------|
D#|---10------10---10---10------10---10---10------10---10---10------10---10-|
B |-7----7-------7----6----6-------6----0----0-------0----0----0-------0----|
F#|-------------------------------------------------------------------------|


Verse 1(Can do the Intro pattern too!)
F# F#
Remember when there was
C# C# B B
nothing else to do but lie in bed and
F# F#
wonder how it was
C# C# B B
always up to you and no one else and


Pre-Chorus 1
F# F# C# C#
Early mornings made by warnings
B B
what's the point of the alarm that I'm ignoring?
F# F# C# C#
It's even raining I'm not
B B
complaining but waking
C# C#
up is hard to do so


Chorus
F# F#
Turn my head it's back
E E B B
to bed with no delay
F# F#
Can't be bothered by the
E E B B
phone ten times a day
F# F#
Why get up my morning
E E B B
doesn't even start till two?
F# F# E E
Forget reality waking
B B
up is hard to do


Fill
G#|-10---10---10-10-10-10-10---10---10-10-10-10--|
D#|-10---10---10-10-10-10-10---10---10-10-10-10--|
B |--7----7----7--7--7--7--6----6----6--6--6--6--|
F#|--7----7----7--7--7--7--7----7----7--7--7--7--|

G#|-7---7---7-7-7-7-------8-10---10---10-10-10-10--|
D#|-7---7---7-7-7-7-6-7-6---10---10---10-10-10-10--|
B |-4---4---4-4-4-4----------7----7----7--7--7--7--|
F#|-4---4---4-4-4-4----------7----7----7--7--7--7--|

G#|-10---10---10-10-10-10-7---7---7-7-7-7------------|
D#|-10---10---10-10-10-10-7---7---7-7-7-7-6-7-6-7-9--|
B |--6----6----6--6--6--6-4---4---4-4-4-4------------|
F#|--7----7----7--7--7--7-4---4---4-4-4-4------------|


Verse 2:
F# F# C# C#
Remember when we would hang out
B B
every day and we would rather
F# F# C# C#
Not be told what to do or what to
B B
say Cause nothing mattered


Pre-Chorus 2
F# F# C# C#
Never boring slept in mornings
B B
not ashamed of the
C# C#
habits that I'm forming
F# F# C# C#
It's not important if days
B B
are shortened I can't make
C# C#
time when nothing's new
B B C# C#
Cause waking up is hard to do so


Chorus


Interlude
G#|-5-5--5-5--5-5--5-5--5-5--|
D#|-x-x--x-x--x-x--x-x--x-x--|
B |-2-2--2-2--2-2--2-2--2-2--|
F#|--------------------------|

G#|-10-10---8-8---3-3---8-8--2-3-2-|
D#|-10-10---8-8---3-3---8-8--2-3-2-| 4x
B |--7--7---5-5---x-x---5-5--x-x-x-|
F#|--7--7---5-5---5-5---5-5--4-5-4-|


Verse 3
F# F# C# C#
What's a day when it all ends
B B
up the same and lasts forever?
F# F# C# C#
Can't complain when there's nothing there
B B
to blame and things can't be better
F# F# C# C#
Summer evenings teenage grievings
B B
Got no problem with the life that I've been leading
F# F# C# C#
No concentration on hesitation


Pre-Chorus 3
B B
I can't make time
C# C#
when nothing's new
B B
Cause waking up
C# C#
is hard to do so


Chorus


Outro
G#|-10-10---8-8---3-3---8-8--2-3-2-|
D#|-10-10---8-8---3-3---8-8--2-3-2-| 2x
B |--7--7---5-5---x-x---5-5--x-x-x-|
F#|--7--7---5-5---5-5---5-5--4-5-4-|

G#|-5-5--5-5--5-5--5-5--5-5--|
D#|-x-x--x-x--x-x--x-x--x-x--| 2x
B |-2-2--2-2--2-2--2-2--2-2--|
F#|--------------------------|

F# F#

 

Commentaires (0)
Aucun commentaire :(
Besoin d'aide, envie de partager une astuce, ou simplement de parler de cette chanson? Commencez la discussion!

Vous devez être connecté pour participer à la discussion
ou Inscription

 

A propos de cette chanson

Pas d'information sur cette chanson.