Zoe Jane (Intro) Tab par Staind

Tablature Ukulélé sans accords.

Ajouter cette tab à votre SongBook
Tablature / ChordsFont size: A- A A+

Vous ne savez pas comment lire une tablature ou un accord ?
Ne manquez pas nos cours:

Comment lire une tablature pour ukulélé
Comment lire un accord

a --7--7----------------------
E ---------2--2---3--3--3--3--
d -0--0---2--2---4--4--4--4---
g ---0--0---0--0---0--0--0--0-

a -------------------------------------------------7--7--7--7--
E -3----3----3----3------2--2--2--2---3--3--3--3---------------
d ----------------------2--2--2--2---4--4--4--4---0--0--0--0---
g ---4-0--4-0--4-0--4-0---0--0--0--0---0--0--0--0---0--0--0--0-

A----2--------5--------2--------------
E----3--------3--------0--------0-----
C----2--------6--------4--------0-----
G----0--------0--------0--------0-----

 

Commentaires (0)
Aucun commentaire :(
Besoin d'aide, envie de partager une astuce, ou simplement de parler de cette chanson? Commencez la discussion!

Vous devez être connecté pour participer à la discussion
ou Inscription

 

A propos de cette chanson

Pas d'information sur cette chanson.