So Far Away Tab par Staind

Tablature Ukulélé sans accords.

Ajouter cette tab à votre SongBook
Tablature / ChordsFont size: A- A A+

Vous ne savez pas comment lire une tablature ou un accord ?
Ne manquez pas nos cours:

Comment lire une tablature pour ukulélé
Comment lire un accord

----------------------------------------3
---------5---------------5------------
--------------------------------------
-9---4------4--9--10---4-----4--10--12---

4--------------------------------------
--5-------------6---3-----------------
--------------------------------------
-----4--12---7-------------------------

-----------------------------------------
---------5--------------5-------------
--------------------------------------
-9---4------4--9--10--4-----4--10--12--4-

----------------7---------------------
-5---------4--------------------------
--------------------2-----------------
----4----------------^----------------

--------------------------------------
--------5--------------5-----------5--
--------------------------------------
--9--4-----4--9--9--4-----4--9--4-----

--------------------------------------
---------6--3-------------------------
--------------------------------------
4--9--7-------------------------------
--J----J--J--J---J----J--J--J-/7---7-7
--T----T--T--T---T----T--T--T-/5---5-5
--------------------------------------
--------------------------------------
-7--7---7-7-7-------------------------
-5--5---5-5-5-------------------------
--------------------------------------
--------------------------------------
--9---9-9-9--9---9-9-9/5---5-5-5--5---
--7---7-7-7--7---7-7-7/3---3-3-3--3---
--------------------------------------
--------------------------------------
5-5-5---------------------------------
3-3-3---------------------------------
--------------------------------------
--------------------------------------

 

Commentaires (0)
Aucun commentaire :(
Besoin d'aide, envie de partager une astuce, ou simplement de parler de cette chanson? Commencez la discussion!

Vous devez être connecté pour participer à la discussion
ou Inscription

 

A propos de cette chanson

Pas d'information sur cette chanson.