Live To Rise Tab par Soundgarden

Tablature Ukulélé sans accords.

Ajouter cette tab à votre SongBook
Tablature / ChordsFont size: A- A A+

Vous ne savez pas comment lire une tablature ou un accord ?
Ne manquez pas nos cours:

Comment lire une tablature pour ukulélé
Comment lire un accord

A-------------------------T-p9--------------------J----T-p9---------|
E--0-0-T--T--0-0-T--0-J-p0----J-p0-T--T--0-0-T--0----0-----J-p0-----|
D-------------------------------------------------------------------|
G-------------------------------------------------------------------|
A---------------------T-hJ--J--J------------------------------------|
E--T--T--0-0-T--0-J-p0----------------------------------------------|
D-------------------------------------------------------------------|
G-------------------------------------------------------------------|
A---------------------T-p9--------------------J----T-p9-------------|
E--T--T--0-0-T--0-J-p0----J-p0-T--T--0-0-T--0----0-----J-p0---------|
D-------------------------------------------------------------------|
G-------------------------------------------------------------------|
A---------------------T-p9--------------------J----T-p9-------------|
E--T--T--0-0-T--0-J-p0----J-p0-T--T--0-0-T--0----0-----J-p0---------|
D-------------------------------------------------------------------|
G-------------------------------------------------------------------|
S S S S
A------------00------------22------------00------------22-----------|
E--555-777-5-00--555-777-5-22--555-777-5-00--555-777-5-22-33--------|
C--222-444-2-----222-444-2-----222-444-2-----222-444-2----00--------|
G--777-999-7-22--777-999-7-44--777-999-7-22--777-999-7-44-55--------|
A--3-3-5-2----------------------------------------------------------|
E------3------------------------------------------------------------|
C--7-7-7-6----------------------------------------------------------|
G--5-5---4----------------------------------------------------------|
S
A------------00-----------------------------------------------------|
E--555-777-5-00-33--------------------------------------------------|
C--222-444-2----00--------------------------------------------------|
G--777-999-7-22-55--------------------------------------------------|
A-------------------------T-p9--------------------J----T-p9---------|
E--0-0-T--T--0-0-T--0-J-p0----J-p0-T--T--0-0-T--0----0-----J-p0-----|
D-------------------------------------------------------------------|
G-------------------------------------------------------------------|
S S S S
A------------00------------22------------00------------22-----------|
E--555-777-5-00--555-777-5-22--555-777-5-00--555-777-5-22-33--------|
C--222-444-2-----222-444-2-----222-444-2-----222-444-2----00--------|
G--777-999-7-22--777-999-7-44--777-999-7-22--777-999-7-44-55--------|
A--3-3-5-2----------------------------------------------------------|
E------3------------------------------------------------------------|
C--7-7-7-6----------------------------------------------------------|
G--5-5---4----------------------------------------------------------|
S
A------------00-----------------------------------------------------|
E--555-777-5-00-33--------------------------------------------------|
C--222-444-2----00--------------------------------------------------|
G--777-999-7-22-55--------------------------------------------------|

A-----2-------------------------------------------------------------|
E--6--0-7-5---------------------------------------------------------|
C--3--4-4-2---------------------------------------------------------|
G--8--0-9-7---------------------------------------------------------|

A--3-3-3-3-3--3-3-3-3-3--------------------------------------------|
E----0-2-3-5----0-2-3-5--------------------------------------------|
C--2-2-2-2-2--2-2-2-2-2--------------------------------------------|
G--0-0-0-0-0--0-0-0-0-0--------------------------------------------|

A--0-0-0-0-0--0-0-0-0-0--------------------------------------------|
E--0-0-0-0-0--0-0-0-0-0--------------------------------------------|
C------------------------------------------------------------------|
G--0-0-0-0-0--0-0-0-0-0--------------------------------------------|

A--5-5-5-5-5--5-5-5-5-5---------------------------------------------|
E----0-2-3-5----0-2-3-5--7------------------------------------------|
C--2-2-2-2-2--2-2-2-2-2--4------------------------------------------|
G--2-2-2-2-2--2-2-2-2-2--9------------------------------------------|
A---------------------T-p9--------------------J----T-p9-------------|
E--T--T--0-0-T--0-J-p0----J-p0-T--T--0-0-T--0----0-----J-p0---------|
D-------------------------------------------------------------------|
G-------------------------------------------------------------------|
A---------------------T-p9-------------------------T-hJ--J--J-------|
E--T--T--0-0-T--0-J-p0----J-p0-T--T--0-0-T--0-J-p0------------------|
D-------------------------------------------------------------------|
G-------------------------------------------------------------------|
S S S S
A------------00------------22------------00------------22-----------|
E--555-777-5-00--555-777-5-22--555-777-5-00--555-777-5-22-33--------|
C--222-444-2-----222-444-2-----222-444-2-----222-444-2----00--------|
G--777-999-7-22--777-999-7-44--777-999-7-22--777-999-7-44-55--------|
A--3-3-5-2----------------------------------------------------------|
E------3------------------------------------------------------------|
C--7-7-7-6----------------------------------------------------------|
G--5-5---4----------------------------------------------------------|
S S S S
A------------00------------22------------00------------22-----------|
E--555-777-5-00--555-777-5-22--555-777-5-00--555-777-5-22-33--------|
C--222-444-2-----222-444-2-----222-444-2-----222-444-2----00--------|
G--777-999-7-22--777-999-7-44--777-999-7-22--777-999-7-44-55--------|
A--3-3-5-2----------------------------------------------------------|
E------3------------------------------------------------------------|
C--7-7-7-6----------------------------------------------------------|
G--5-5---4----------------------------------------------------------|
S
A------------00-----------------------------------------------------|
E--555-777-5-00-33--------------------------------------------------|
C--222-444-2----00--------------------------------------------------|
G--777-999-7-22-55--------------------------------------------------|

A-----2-2-2---------------------------------------------------------|
E--6--0-0-0---------------------------------------------------------|
C--3--4-4-4---------------------------------------------------------|
G--8--1-1-1---------------------------------------------------------|

 

Commentaires (0)
Aucun commentaire :(
Besoin d'aide, envie de partager une astuce, ou simplement de parler de cette chanson? Commencez la discussion!

Vous devez être connecté pour participer à la discussion
ou Inscription

 

A propos de cette chanson

Pas d'information sur cette chanson.