Here I Am Tab par Soja

0 Accords utilisés dans la chanson:

Ajouter cette tab à votre SongBook
Tablature / ChordsFont size: A- A A+

Vous ne savez pas comment lire une tablature ou un accord ?
Ne manquez pas nos cours:

Comment lire une tablature pour ukulélé
Comment lire un accord

The intro:

A------------------------------9----------------9--------|
E----10--10-10-10/12-10-----10--10--10-10-10h12--10-9\10-|
C--11--11--------------11-11------11---------------------|
G--------------------------------------------------------|

A-------------12-10-------9----------------9-------------|
E----10--10-10-----10--10--10--10-10-10h12--10-9\10------|
C--11--11------------11------11--------------------------|
G--------------------------------------------------------|

 

Commentaires (0)
Aucun commentaire :(
Besoin d'aide, envie de partager une astuce, ou simplement de parler de cette chanson? Commencez la discussion!

Vous devez être connecté pour participer à la discussion
ou Inscription

 

A propos de cette chanson

Pas d'information sur cette chanson.