Landslide Tab par Smashing Pumpkins

Tablature Ukulélé sans accords.

Ajouter cette tab à votre SongBook
Tablature / ChordsFont size: A- A A+

Vous ne savez pas comment lire une tablature ou un accord ?
Ne manquez pas nos cours:

Comment lire une tablature pour ukulélé
Comment lire un accord

|-----3---3----2---2-2-5----0-----0------2---2-2-5---|
|---0-------0-----------------0-------0--------------|
|-0-----0--------2-------2-----------------2-------2-|
|---------------------------2---0---2----------------|

|-----3---3----2---2-2-5----0-----0-----0------2-----|
|---0-------------------------0-------0---0----------|
|-0-----0--------2-------------------------------2---|
|-----------0------------0--2---0---2---2---0------0-|

|-----3---3----2---2-2-5----0-----0------2---2-2-5---|
|---0-------0-----------------0-------0--------------|
|-0-----0--------2-------2-----------------2-------2-|
|---------------------------2---0---2----------------|

|-----3---3----2---2-2-5----0-----0------------------|
|---0-------0-----------------0-------0--------------|
|-0-----0--------2-------2---------------6-2---6---2-|
|---------------------------2---0---2----2---2---2---|
|---5-------5----5-------5----2-7-----7---2-7-----7-|
|-3-----3------2-----2------0-----0-----0-----0-----|
|---------------------------------------------------|
|-2---2---2----2---2---2----0-------0---0-------0---|

|-----3---3----2---2-2-5----0-----0------------------|
|---0-------0-----------------0-------0--------------|
|-0-----0--------2-------2---------------6-2---6---2-|
|---------------------------2---0---2----2---2---2---|
|---5-------5----5-------5----2-7-----7---2-7-----7-|
|-3-----3------2-----2------0-----0-----0-----0-----|
|---------------------------------------------------|
|-2---2---2----2---2---2----0-------0---0-------0---|

|-----3---3----2---2-2-5----0-----0------2---2-2-5---|
|---0-------0-----------------0-------0--------------|
|-0-----0--------2-------2-----------------2-------2-|
|---------------------------2---0---2----------------|

|-----3---3----2---2-2-5----0-----0------2---2-2-5---|
|---0-------0-----------------0-------0--------------|
|-0-----0--------2-------2-----------------2-------2-|
|---------------------------2---0---2----------------|

|-----3---3----2---2-2-5----0-----0------------------|
|---0-------0-----------------0-------0--------------|
|-0-----0--------2-------2---------------6-2---6---2-|
|---------------------------2---0---2----2---2---2---|

 

Commentaires (0)
Aucun commentaire :(
Besoin d'aide, envie de partager une astuce, ou simplement de parler de cette chanson? Commencez la discussion!

Vous devez être connecté pour participer à la discussion
ou Inscription

 

A propos de cette chanson

Pas d'information sur cette chanson.