Raining Blood Tab par Slayer

Tablature Ukulélé sans accords.

Notez la chanson !
ImprimerAjouter cette tab à votre SongBook

Tablature / Chords (Chanson entière)

Font size: A- A A+

Artiste: 
Année:  1986
Tonalité: inconnuTablature (sans accords)
Tune of the song: C C
BPM : Beats Per Minute
s: Slide
p: Pull Off
h: Hammer On

BPM:178
||-------------------------------------------------||x2
||°--------------2--3--2-------2--1-------1--0----°||
||°--0--0--0--0-------------2----------1----------°||
||-------------------------------------------------||

||-------------------------------------------------||x2
||°-----------------------------------------------°||
||°--0--0--0--0------------------------6----------°||
||----------------4--5--4----0--4--3-------3--2----||

||-------------------------------|------------------------------|
||°------------------------------|------------------------------|
||°--0-0-0--0-0-0--0-0-0--0-0-0--|--0-0-0--0-0-0--0-0-0--0-0-0--|
||-------------------------------|------------------------------|

|------------------------------|-----------0--4--3---------||x2
|------------------------------|--------0-----------4--3--°||
|--0-0-0--0-0-0--0-0-0--0-0-0--|--0--2--------------------°||
|------------------------------|---------------------------||

BPM:212
||-----------------------------------||x2
||°---------------------------------°||
||°-5-3-2-0-6-4-3-0-5-3-2-0-6-4-3-0-°||
||-----------------------------------||

||----------------------------------|--------------------------------|
||°---------------------------------|-------------------------2------|
||°-5-3-2-0-6-4-3-0-5-3-2-0-6-4-3-0-|-5-3-2-0-6-4-3-0-5-3-2-0-1--3-0-|
||----------------------------------|--------------------------------|

|---------------------------------|------------------------------------||x2
|---------------------------------|-----------------------------------°||
|-5-3-2-0-6-4-3-0-5-3-2-0-6-4-3-0-|-5-3-2-0-6-4-3-0-5-3-2-0-1--4--3-0-°||
|---------------------------------|-------------------------0--4-------||

|---------------------------------|--------------------------------|
|---------------------------------|-------------------------2------|
|-5-3-2-0-6-4-3-0-5-3-2-0-6-4-3-0-|-5-3-2-0-6-4-3-0-5-3-2-0-1--3-0-|
|---------------------------------|--------------------------------|

|---------------------------------|-------------------------------|
|---------------------------------|-------------------------------|
|-5-3-2-0-6-4-3-0-5-3-2-0-6-4-3-0-|-5-3-2-0-6-4-3-0-5-3-2-0-1--4--|
|---------------------------------|-------------------------0--4--|

||-------------------1--0---|-----------------------||x8
||°---------------1--1--0---|----------------1---4-°||
||°-0--0-0-0-0-0--0---------|--0--0-0-0-0-0--0---3-°||
||--------------------------|-----------------------||

BPM:188
||-------------------------|------------------10--9--|
||°-------------8h11p9p8-9-|-----------8--11---------|
||°-0--0--0--0-------------|--0--0--0----------------|
||-------------------------|-------------------------|

|--0--0--0--0--0--0--0--0--|--0--0--0--0----------||x4
|--0--0--0--0--0--0--0--0--|--0--0--0--0---------°||
|--------------------------|--------------3---3--°||
|--------------------------|--------------3---3---||

BPM:185
||-------------------------------------------------||x2
||°--------------2--3--2-------2--1-------1--0----°||
||°--0--0--0--0-------------2----------1----------°||
||-------------------------------------------------||

||-------------------------------------------------||x2
||°-----------------------------------------------°||
||°--0--0--0--0------------------------6----------°||
||----------------4--5--4----0--4--3-------3--2----||

||----------------|----------------||x4
||°---------------|---------------°||
||°--0--0---0--0--|--0--0---0--0--°||
||---0--0---0--0--|--0--0---0--0---||

||-----------8-----------7-|----------6--------------||x6
||°----6--9--------6--9----|----6--9--------6--9--8-°||
||°-0-----------0----------|-0-----------0----------°||
||-------------------------|-------------------------||

||-------------------------|------------------------||x4
||°------------------------|-----------------------°||
||°-0--0--3--7--0--0--3--6-|-0--0--3--5--0--0--3s2-°||
||--0--0--3--7--0--0--3--6-|-0--0--3--5--0--0--3s2--||

|---------------------------------|---------------------------------|
|---------------------------------|---------------------------------|
|-0-0-0-0-0-0-0-0-0-0-0-0-0-0-0-0-|-0-0-0-0-0-0-0-0-0-0-0-0-0-0-0-0-|
|---------------------------------|---------------------------------|

|-----------------|---------------------------------|
|-----------------|---------------------------------|
|-0-0-0-0-0-0-0-0-|-0-0-0-0-0-0-0-0-0-0-0-0-0-0-0-0-|
|-----------------|---------------------------------|

BPM:247
||--------------------------|---------------------------||x4
||°-------------------------|--------------------------°||
||°-0--0--0--0--0--0--7--7--|--6--6--6--6--3--3--3--3--°||
||--------------------------|---------------------------||

||--------------------------|---------------------------||x2
||°-------------------------|--------------------------°||
||°-4--4--4--4--4--4--8--8--|--7--7--7--7--7--7--8--8--°||
||--------------------------|---------------------------||

||--------------------------|---------------------------||x9
||°-------------------------|--------------------------°||
||°-0--0--0--0--0--0--7--7--|--6--6--6--6--3--3--3--3--°||
||--------------------------|---------------------------||

|--------------------------|--------------------------|
|--------------------------|--------------------------|
|--0--0--0--0--0--0--0--0--|--0--0--0--0--0--0--0--0--|
|--------------------------|--------------------------|

|--------------------------|--------------------------|
|--------------------------|--------------------------|
|--0--0--0--0--0--0--0--0--|--0--0--0--0--0-----------|
|--------------------------|--------------------------|


----------------------------------------------------------------------------------------

Tabs by Maxime Ducrot

⇢ Cette tablature ne vous convient pas? Voir 3 autre(s) version(s)

Tab par , 02 mai 2017

Commentaires (2)

Commenter
Partagez vos rythmiques, vos accords ou vos astuces pour jouer cette tablature!
Filtrer par:
skirt avatar
flag for CA(ISO2) (Hell)
What does xxxxxxxx mean?
28 Sep 2018
Question
caiaccount avatar
Why are these written oddly?
05 Jan 2018
Question

A propos de cette chanson: Raining Blood

Pas d'information sur cette chanson.

As-tu repris Raining Blood sur ton Ukulélé ? Partage ta reprise!
Ajouter une reprise