Remedy Tab par Seether

Tablature Ukulélé sans accords.

ImprimerAjouter cette tab à votre SongBook
Tablature / ChordsFont size: A- A A+

Vous ne savez pas comment lire une tablature ou un accord ?
Ne manquez pas nos cours:

Comment lire une tablature pour ukulélé
Comment lire un accord

|-2--X-0-2-2-0-5-|
|-2--X-0-2-2-0-5-|
|-4--X-2-4-4-2-7-|
|----------------|

|-6-|----------6-------|
|---|--------------3---|
|---|------------------|
|---|----------------4-|

|-------------------|----7------7---7---5------|
|-------------4--5--|--1-------------------|
|-9-----9--9--5--7--|-X--12-----12--12--10--9--|
|-4-fb--4--4--------|----7-fb--7--7--5--4--|
|---2-7-2---0-5-0---2-7-2---5-10-5-|
|-2-------0-------2-------5--------|
|----------------------------------|
|----------------------------------|
~~~
|----------|
|-5--------|
|----------|
|----4-----|
|-7777777733333---|
|-7777777733333---|
|-9999999955555---|
|-----------------|

|-----------------|
|-----------------|
|-----------------|
|---------------4-|
|-2--X-0-2-2-0-5-|--8-7--X-7-7-5-5--|
|-2--X-0-2-2-0-5-|----7--X-7-7-5-5--|
|-4--X-2-4-4-2-7-|-X--9--X-9-9-7-7--|
|----------------|------------------|
|---2-7-2---0-5-0---2-7-2---5-10-5-|
|-2-------0-------2-------5--------|
|----------------------------------|
|----------------------------------|
~~~
|----------|
|-5--------|
|----------|
|----4-----|
|-7-7-7-7-7-7-7-7-5-5-5-5-5-0-0-0-|
|-7-7-7-7-7-7-7-7-5-5-5-5-5-0-0-0-|
|-9-9-9-9-9-9-9-9-7-7-7-7-7-2-2-2-| |---------------------------------|

|-------------------|----7------7---7---5------|
|-------------4--5--|--1-------------------|
|-9-----9--9--5--7--|-X--12-----12--12--10--9--|
|-4-fb--4--4--------|----7-fb--7--7--5--4--|

|--------------------------------|
|--------------------------4--5--|
|-9----9----9----9----9----6--7--|
|-4-fb-4-fb-4-fb-4-fb-4-fb-------|

|---------------------7--------------|
|-----------------------------------|
|-9----9----9----9----12-------------|
|-4-fb-4-fb-4-fb-4-fb-7-fb-7--7--7--|

 

Commentaires (0)
Aucun commentaire :(
Besoin d'aide, envie de partager une astuce, ou simplement de parler de cette chanson? Commencez la discussion!

Vous devez être connecté pour participer à la discussion
ou Inscription

 

A propos de cette chanson

Pas d'information sur cette chanson.