Howe Sounds Tab par Said The Whale

Tablature Ukulélé sans accords.

Ajouter cette tab à votre SongBook
Tablature / ChordsFont size: A- A A+

Vous ne savez pas comment lire une tablature ou un accord ?
Ne manquez pas nos cours:

Comment lire une tablature pour ukulélé
Comment lire un accord

# Repeat through verses

A|-0-----------0-0-----------0----------0-0----------|
E|---4-4/2-2-------5-5/7-7-----4-4/2-2------7-7/4-4--|
C|----------------------------------------------------|
G|----------------------------------------------------|

# Repeat through chorus

A|--4-4--7----------------------------------|
E| -------5--4--2----------------------------|
C|----------4--3----------------------------|
G|--2-2-------------------------------------|

 

Commentaires (0)
Aucun commentaire :(
Besoin d'aide, envie de partager une astuce, ou simplement de parler de cette chanson? Commencez la discussion!

Vous devez être connecté pour participer à la discussion
ou Inscription

 

A propos de cette chanson

Pas d'information sur cette chanson.