Goonight Moon Tab par Said The Whale

Tablature Ukulélé sans accords.

Ajouter cette tab à votre SongBook
Tablature / ChordsFont size: A- A A+

Vous ne savez pas comment lire une tablature ou un accord ?
Ne manquez pas nos cours:

Comment lire une tablature pour ukulélé
Comment lire un accord

Intro:
A|----------------------------------------------------------------------------|
E|----4----4----4----4----4----4----4----4----4----4----4----4----4----4------|
C|--4----4----4----4----4----4----4----4----4----4----4----4----4----4--------|
G|--4----4----6----6---8----8-----6----6----4----4----6----6---8----8-----9---|


Verse:
A|------------------------------------------|
E|----4----4----4----4----4----4----4----4--|
C|--4----4----4----4----4----4----4----4----| x2
G|--4----4----6----6---8----8-----6----6----|



A|----------------------------------------|
E|---5------5------5------5---------------| x2
C|--6------6------6------6----------------|
G|------8------8------8------8------------|



A|-----------------------------------|
E|----4----4----4----4----4----4-----|
C|--4----4----4----4----4----4-------|
G|--4----4----6----6---8----8-----9--|

Play verse twice.

Bridge
A|--6----6----6----6-6----6-6----6----6----6----6----6----6----6----6---|
E|--2----4----5----4-4----2-2----4----5----4----2----4----5----4----2---|
C|-----------------------------------------------------------------------|
G|--4----4----4----4-4----4-4----4----4----4----4----4----4----4----4---|


Interlude:
A|-----------------------------------|
E|----4----4----4----4----4----4-----|
C|--4----4----4----4----4----4-------|
G|--4----4----6----6---8----8-----9--|


Fast Part:
A|--4--4--4---6--6--6-6-6-6-6---8--8--8----6--6--6-6-6-6-6---|
E|-------------------------------------------------------------|
C|--4--4--4---4--4--4-4-4-4-4---4--4--4----4--4--4-4-4-4-4---| x6
G|--4--4--4---6--6--6-6-6-6-6---8--8--8----6--6--6-6-6-6-6---|



A|--8---8---8----8---8---8--8--8--8--8----|
E|-----------------------------------------|
C|--6---6---6----6---6---6--6--6--6--6----| x2
G|--8---8---8----8---8---8--8--8--8--8----|



A|--4--4--4---6--6--6-6-6-6-6---8--8--8----6--6--6-6-6-6-6---|
E|-------------------------------------------------------------|
C|--4--4--4---4--4--4-4-4-4-4---4--4--4----4--4--4-4-4-4-4---| x2
G|--4--4--4---6--6--6-6-6-6-6---8--8--8----6--6--6-6-6-6-6---|



A|--8---8---8----8---8---8--8--8--8--8----|
E|-----------------------------------------|
C|--6---6---6----6---6---6--6--6--6--6----| x2
G|--8---8---8----8---8---8--8--8--8--8----|


Outro:
A|---4--4--4---6--6--6-6-6-6-6---4--4--4---4--4-4-4-4---|
E|--------------------------------------------------------|
C|---4--4--4---4--4--4-4-4-4-4---4--4--4---4--4-4-4-4---|
G|---4--4--4---6--6--6-6-6-6-6---4--4--4---4--4-4-4-4---|

 

Commentaires (0)
Aucun commentaire :(
Besoin d'aide, envie de partager une astuce, ou simplement de parler de cette chanson? Commencez la discussion!

Vous devez être connecté pour participer à la discussion
ou Inscription

 

A propos de cette chanson

Pas d'information sur cette chanson.