Strasbourg / St. Denis (Riff) Tab par Roy Hargrove

Tablature Ukulélé sans accords.

Ajouter cette tab à votre SongBook
Tablature / ChordsFont size: A- A A+

Vous ne savez pas comment lire une tablature ou un accord ?
Ne manquez pas nos cours:

Comment lire une tablature pour ukulélé
Comment lire un accord

A|11--8--6--8--3--1-----1-----1-----------|
E|-------------------4-----------4--------|
C|-------------------------3--------------|
G|----------------------------------------|

A|11--8--6--8--3--1-----1-----1-----3--6--|
E|-------------------4-----------4--------|
C|-------------------------3--------------|
G|----------------------------------------|

A|11--8--6--8--3--1-----1-----1-----------|
E|-------------------4-----------4--------|
C|-------------------------3--------------|
G|----------------------------------------|

A|---1--3--1------------------------------|
E|4-----------4--3--1-----3--3--5--6--2--1|
C|---------------------3------------------|
G|----------------------------------------|

 

Commentaires (0)
Aucun commentaire :(
Besoin d'aide, envie de partager une astuce, ou simplement de parler de cette chanson? Commencez la discussion!

Vous devez être connecté pour participer à la discussion
ou Inscription

 

A propos de cette chanson

Pas d'information sur cette chanson.