Stay Alive Tab par Ríe Takahashi

Tablature Ukulélé sans accords.

Ajouter cette tab à votre SongBook
Tablature / ChordsFont size: A- A A+

Vous ne savez pas comment lire une tablature ou un accord ?
Ne manquez pas nos cours:

Comment lire une tablature pour ukulélé
Comment lire un accord

H   ~                 H   ~                
A||----------2-5-------------------2-5--------2-----5--|
E||------------------------0--------------------0------|
C||--0-------------------------------------------------|
G||------0-------0-------------0-------0----------0----|
H ~ H ~
A||----------2-5-------------------2-5----------5------|
E||------------------------0------------------0--------|
C||--0----------------------------------------------2--|
G||------0-------0-------------0-------0----------0----|
H ~ S ~
A||------5-------5-------------5-------5----------5----|
E||--3-------3-5-----------2-------2-3--------------3--|
C||-------------------------------------------2--------|
G||---------------------------------------------0------|
H ~ H ~
A||------5-------5---------------------------------------|
E||--3-------3-5---------------3--------3---------3------|
C||---------------------------------------------------2--|
G||------------------------4-------4-7---------7----0----|
S ~ S ~
A||----------------------------------------------|
E||--------------5--5----------5--------5--3-3---|
C||----------------------------------------------|
G||--4----0---4---------------------0------------|
S ~ S ~
A||--------------------------------------------|
E||--------------5--5----------2-------2-3-3---|
C||--------------------------------------------|
G||--4----0---4--------------------0-----------|
H ~ H ~
A||----------2-5-------------------2-5--------2-----5--|
E||------------------------0--------------------0------|
C||--0-------------------------------------------------|
G||------0-------0-------------0-------0----------0----|
H ~ H ~
A||----------2-5-------------------2-5----------5------|
E||------------------------0------------------0--------|
C||--0----------------------------------------------2--| G||------0-------0-------------0-------0----------0----|
H ~ S ~
A||------5-------5-------------5-------5----------5----|
E||--3-------3-5-----------2-------2-3--------------3--|
C||-------------------------------------------2--------|
G||---------------------------------------------0------|
H ~ H ~
A||------5-------5---------------------------------------|
E||--3-------3-5---------------3--------3---------3------|
C||---------------------------------------------------2--| G||------------------------4-------4-7---------7----0----|

A||--------------------------------------------------------------7--|
E||------3-------3-------3-------3---5---2---5---2-------2---5------|
C||-----------------------------------------------------------------|
G||--4-------4-------5-------4-----------------------4--------------|

A||------------------------------------------------------------------|
E||------3-------3-------3--------3---5---2---5---2-------3-------3--|
C||------------------------------------------------------------------|
G||--4-------4-------5-------7------------------------4-------4------|

A||---------------------------------------------------------------7--|
E||------3-------3-------3--------3---5---2---5---2-------2---5------|
C||------------------------------------------------------------------|
G||--4-------4-------5-------7------------------------4--------------|

A||------7-------7---------------------------------------------------|
E||--3-------3-------5---2---5---2-------3-------3-------3--------3--|
C||------------------------------------------------------------------|
G||----------------------------------4-------4-------5-------7-------|
A||--3---3---3---3---5---5---5---5---2---2---2---2---2---2---2---2--|
E||------------------0---0---0---0---2---2---2---2------------------|
C||--7---7---7---7---9---9---9---9---4---4---4---4---6---6---6---6--|
G||--5---5---5---5-----------------------------------4---4---4---4--|
A||--3---3---3---3---5---5---5---5---2---2---2---2---2---2---2---2--|
E||------------------0---0---0---0---2---2---2---2---2---2---2---2--|
C||--7---7---7---7---9---9---9---9---4---4---4---4---4---4---4---4--|
G||--5---5---5---5--------------------------------------------------|
A||--3---3---3---3-3-3-5-5---5---5---2---2---2---2-2-2/2---2---2---2--|
E||--------------------0-0---0---0---1---1---1---1-1-1/2---2---2---2--|
C||--7---7---7---7-7-7-9-9---9---9---3---3---3---3-3-3-4---4---4---4--|
G||--5---5---5---5-5-5------------------------------------------------|
A||--7---7---7---7---2---2---2---2---3---3---3---3---5---5---5---5--|
E||--7---7---7---7-----------------------------------0---0---0---0--|
C||--9---9---9---9---6---6---6---6---7---7---7---7---9---9---9---9--|
G||------------------4---4---4---4---5---5---5---5------------------|
S ~ S ~
A||----------------------------------------------|
E||--------------5--5----------5--------5--3-3---|
C||----------------------------------------------|
G||--4----0---4---------------------0------------|
S ~ S ~
A||--------------------------------------------|
E||--------------5--5----------2-------2-3-3---|
C||--------------------------------------------|
G||--4----0---4--------------------0-----------|
~ H ~
A||--5-------5-----------5--5-------2----------------------5-----|
E||--------------3-------------2-3------------3---------0--------|
C||---------------------(---------)------------------------------|
G||------0-----0--------(---------)-----0---0---0-------------0--|
~ H ~
A||--5-------5---5-------5--5-------2----------------------5-----|
E||----------------------------2-3------------3---------0--------|
C||---------------------(---------)------------------------------|
G||------0-----0--------(---------)-----0---0---0-------------0--|

A||-------------------------------------------------------------------|
E||--3-3-3-3-3-3-3-3-3-3-3-3-3-3-3-3----------------------------------|
C||--0-0-0-0-0-0-0-0-0-0-0-0-0-0-0-0-4-4-4-4-4-4-4-4-4-4-4-4-4-4-4-4--|
G||----------------------------------4-4-4-4-4-4-4-4-4-4-4-4-4-4-4-4--|

A||-------------------------------------------------------------------|
E||--3-3-3-3-3-3-3-3-3-3-3-3-3-3-3-3---------------------------7-7-7--|
C||--0-0-0-0-0-0-0-0-0-0-0-0-0-0-0-0-4-4-4-4-4-4-4-4-4-4-4-4-4--------|
G||----------------------------------4-4-4-4-4-4-4-4-4-4-4-4-4-0-0-0--|
H ~ H ~
A||----------2-5-------------------2-5--------2-----5--|
E||------------------------0--------------------0------|
C||--0-------------------------------------------------|
G||------0-------0-------------0-------0----------0----|
H ~ H ~
A||----------2-5-------------------2-5----------5------|
E||------------------------0------------------0--------|
C||--0----------------------------------------------2--|
G||------0-------0-------------0-------0----------0----|
H ~ S ~
A||------5-------5-------------5-------5----------5----|
E||--3-------3-5-----------2-------2-3--------------3--|
C||-------------------------------------------2--------|
G||---------------------------------------------0------|
H ~ H ~
A||------5-------5---------------------------------------|
E||--3-------3-5---------------3--------3---------3------|
C||---------------------------------------------------2--|
G||------------------------4-------4-7---------7----0----|
S ~ S ~
A||----------------------------------------------|
E||--------------5--5----------5--------5--3-3---|
C||----------------------------------------------|
G||--4----0---4---------------------0------------|
S ~ S ~
A||--------------------------------------------|
E||--------------5--5----------2-------2-3-3---|
C||--------------------------------------------|
G||--4----0---4--------------------0-----------|
A||--12-\--2-2-2-2-2-2-2-2-2-2-2-2-10--10--10--10---|
E||--12-\--2-2-2-2-2-2-2-2-2-2-2-2--------------|
C||--14----4-4-4-4-4-4-4-4-4-4-4-4-x--x--x--x---|
G||-------------------------------12--12--12--12---|
~ ~ ~
A||-------------------2---------------------------------------2---|
E||--5---------------2---------------3---3---3---3---3---3-------|
C||--11-------------------------------0---0---0---0---0---0---2---|
G||------------------4---------------5---5---5---5---5---5---0---|

A||--------------------------------------------------------------7--|
E||------3-------3-------3-------3---5---2---5---2-------2---5------|
C||-----------------------------------------------------------------|
G||--4-------4-------5-------4-----------------------4--------------|

A||------------------------------------------------------------------|
E||------3-------3-------3--------3---5---2---5---2-------3-------3--|
C||------------------------------------------------------------------|
G||--4-------4-------5-------7------------------------4-------4------|

A||---------------------------------------------------------------7--|
E||------3-------3-------3--------3---5---2---5---2-------2---5------|
C||------------------------------------------------------------------|
G||--4-------4-------5-------7------------------------4--------------|

A||------7-------7---------------------------------------------------|
E||--3-------3-------5---2---5---2-------3-------3-------3--------3--|
C||------------------------------------------------------------------|
G||----------------------------------4-------4-------5-------7-------|
A||--3---3---3---3---5---5---5---5---2---2---2---2---2---2---2---2--|
E||------------------0---0---0---0---2---2---2---2------------------|
C||--7---7---7---7---9---9---9---9---4---4---4---4---6---6---6---6--|
G||--5---5---5---5-----------------------------------4---4---4---4--|
A||--3---3---3---3---5---5---5---5---2---2---2---2---2---2---2---2--|
E||------------------0---0---0---0---2---2---2---2---2---2---2---2--|
C||--7---7---7---7---9---9---9---9---4---4---4---4---4---4---4---4--|
G||--5---5---5---5--------------------------------------------------|
A||--3---3---3---3-3-3-5-5---5---5---2---2---2---2-2-2/2---2---2---2--|
E||--------------------0-0---0---0---1---1---1---1-1-1/2---2---2---2--|
C||--7---7---7---7-7-7-9-9---9---9---3---3---3---3-3-3-4---4---4---4--|
G||--5---5---5---5-5-5------------------------------------------------|
A||--7---7---7---7---2---2---2---2---3---3---3---3---5---5---5---5--|
E||--7---7---7---7-----------------------------------0---0---0---0--|
C||--9---9---9---9---6---6---6---6---7---7---7---7---9---9---9---9--|
G||------------------4---4---4---4---5---5---5---5------------------|

A||-------------------------------------------------------------------------------------------------------------------|
E||--3----3----3----3----5----5----5----5----7--7--7----7--7--8--8--8----7--7--7--7--7--7--7---|
C||--------------------------------------------------------------------------------------------| G||--12----12----12----12----14----14----14----14----16--16--16----16--16--17--17--17----16--16--16--16--16--16--16---|
A||--1---1---1---1---3---3---3---3---5-5-5---5-5-5-5-5---5-5-5-5-5-5--|
E||--1---1---1---1---3---3---3---3---5-5-5---5-5-5-5-5---5-5-5-5-5-5--|
C||--3---3---3---3---5---5---5---5---7-7-7---7-7-7-7-7---7-7-7-7-7-7--| G||-------------------------------------------------------------------|

A||------7-------7-------7-------7----------------------------------|
E||--3-------3-------3-------3-------5---2---5---2---5---2---5---2--|
C||-----------------------------------------------------------------|
G||-----------------------------------------------------------------|

A||------------------------------------------------------------------|
E||------3-------3-------3--------3---5---2---5---2-------3-------3--|
C||------------------------------------------------------------------|
G||--4-------4-------5-------7------------------------4-------4------|
A||--8---8-8-8-8-8---8-8-8-8-8-8-8-8-2---2-2-2-2-2---2-2-2-2-2-2-2-2--|
E||--8---8-8-8-8-8---8-8-8-8-8-8-8-8----------------------------------|
C||--10---10-10-10-10-10---10-10-10-10-10-10-10-10-6---6-6-6-6-6---6-6-6-6-6-6-6-6--|
G||----------------------------------4---4-4-4-4-4---4-4-4-4-4-4-4-4--|

A||----------------------------------2---2---2---2---2-2-2-2-2-2-2-2--|
E||--3---3-3-3-3-3---3-3-3-3-3-3-3-3-2---2---2---2---2-2-2-2-2-2-2-2--|
C||--0---0-0-0-0-0---0-0-0-0-0-0-0-0----------------------------------|
G||--5---5-5-5-5-5---5-5-5-5-5-5-5-5-4---4---4---4---4-4-4-4-4-4-4-4--|
H ~ H ~
A||----------2-5-------------------2-5--------2-----5--|
E||------------------------0--------------------0------|
C||--0-------------------------------------------------|
G||------0-------0-------------0-------0----------0----|
H ~ H ~
A||----------2-5-------------------2-5----------5------|
E||------------------------0------------------0--------|
C||--0----------------------------------------------2--| G||------0-------0-------------0-------0----------0----|
H ~ H ~
A||----------2-5-------------------2-5--------2-----5--|
E||------------------------0--------------------0------|
C||--0-------------------------------------------------|
G||------0-------0-------------0-------0----------0----|
H ~
A||----------2-5-----|
E||------------------|
C||--0---------------|
G||------0-------0---|
H ~ S ~
A||------5-------5-------------5-------5----------5----|
E||--3-------3-5-----------2-------2-3--------------3--|
C||-------------------------------------------2--------|
G||---------------------------------------------0------|
H ~ H ~
A||------5-------5---------------------------------------|
E||--3-------3-5---------------3--------3---------3------|
C||---------------------------------------------------2--| G||------------------------4-------4-7---------7----0----|
H ~ S ~
A||------5-------5-------------5-------5----------5----|
E||--3-------3-5-----------2-------2-3--------------3--|
C||-------------------------------------------2--------|
G||---------------------------------------------0------|
H ~
A||------5-------5---|
E||--3-------3-5-----|
C||------------------|
G||------------------|
S ~ S ~
A||----------------------------------------------|
E||--------------5--5----------5--------5--3-3---|
C||----------------------------------------------|
G||--4----0---4---------------------0------------|
S ~ S ~
A||--------------------------------------------|
E||--------------5--5----------2-------2-3-3---|
C||--------------------------------------------| G||--4----0---4--------------------0-----------|
S ~ S ~
A||----------------------------------------------|
E||--------------5--5----------5--------5--3-3---|
C||----------------------------------------------|
G||--4----0---4---------------------0------------|
S ~
A||----------------------|
E||--------------5--5----|
C||----------------------|
G||--4----0---4----------|
A||--5---12-\---5-5-5-5-5-5--|
E||------12-\----------------|
C||------14-----x-x-x-x-x-x--|
G||--0---------7-7-7-7-7-7--|
A||--5---12-\---9--9--9--9--9--9---|
E||------12-\----------------------|
C||------14-----x--x--x--x--x--x---|
G||--0---------11--11--11--11--11--11---|
A||--3------3------5------5------2------2------2---2--|
E||----------------0------0------2------2-------------|
C||--7------7------9------9------4------4------6---6--|
G||--5------5----------------------------------4---4--|
H H H H
A||---------------|
E||--2-3-5--------|
C||------------2--|
G||--------4-5----|
H H H H
A||---------------|
E||----0-2--------|
C||--2------------|
G||--------0-2-4--|

A||--------------------------------------------------------------7--|
E||------3-------3-------3-------3---5---2---5---2-------2---5------|
C||-----------------------------------------------------------------|
G||--4-------4-------5-------4-----------------------4--------------|

A||------------------------------------------------------------------|
E||------3-------3-------3--------3---5---2---5---2-------3-------3--|
C||------------------------------------------------------------------|
G||--4-------4-------5-------7------------------------4-------4------|

A||---------------------------------------------------------------7--|
E||------3-------3-------3--------3---5---2---5---2-------2---5------|
C||------------------------------------------------------------------|
G||--4-------4-------5-------7------------------------4--------------|

A||------7-------7---------------------------------------------------|
E||--3-------3-------5---2---5---2-------3-------3-------3--------3--|
C||------------------------------------------------------------------|
G||----------------------------------4-------4-------5-------7-------|
A||--3---3---3---3---5---5---5---5---2---2---2---2---2---2---2---2--|
E||------------------0---0---0---0---2---2---2---2---2---2---2---2--|
C||--7---7---7---7---9---9---9---9---4---4---4---4---4---4---4---4--|
G||--5---5---5---5--------------------------------------------------|
A||--3---3---3---3-3-3-5-5---5---5---2---2---2---2-2-2/2---2---2---2--|
E||--------------------0-0---0---0---1---1---1---1-1-1/2---2---2---2--|
C||--7---7---7---7-7-7-9-9---9---9---3---3---3---3-3-3-4---4---4---4--|
G||--5---5---5---5-5-5------------------------------------------------|
A||--7---7---7---7---2---2---2---2---3---3---3---3---5---5---5---5--|
E||--7---7---7---7-----------------------------------0---0---0---0--|
C||--9---9---9---9---6---6---6---6---7---7---7---7---9---9---9---9--|
G||------------------4---4---4---4---5---5---5---5------------------|
S ~ S ~
A||----------------------------------------------|
E||--------------5--5----------5--------5--3-3---|
C||----------------------------------------------|
G||--4----0---4---------------------0------------|
S ~ S ~
A||--------------------------------------------|
E||--------------5--5----------2-------2-3-3---|
C||--------------------------------------------|
G||--4----0---4--------------------0-----------|
~ H ~
A||--5-------5-----------5--5-------2----------------------5-----|
E||--------------3-------------2-3------------3---------0--------|
C||---------------------(---------)------------------------------|
G||------0-----0--------(---------)-----0---0---0-------------0--|
~ H ~
A||--5-------5---5-------5--5-------2---------------|
E||----------------------------2-3------------3-----|
C||---------------------(---------)-----------------|
G||------0-----0--------(---------)-----0---0---0---|

A||-----------|
E||-----------|
C||--4-4-4-4--|
G||--7-7-7-7--|

 

Commentaires (0)
Aucun commentaire :(
Besoin d'aide, envie de partager une astuce, ou simplement de parler de cette chanson? Commencez la discussion!

Vous devez être connecté pour participer à la discussion
ou Inscription

 

A propos de cette chanson

Pas d'information sur cette chanson.