The Moon Song (cover) Tab par Ricky Montgomery

2 Accords utilisés dans la chanson: Bb, A#m

8/10
ImprimerAjouter cette tab à votre SongBook

Tablature / Chords (

Font size: A- A A+

Artiste: 
Album:  inconnu
Difficulté: 
4.5
(intermédiaire)
Tonalité: inconnuAccords et Tablature
I'm ly - ing  on    the  moon

E|----1---------3----------0---------0------|
B|---3--3------0--0-------1--1-1----1-1-1---|
G|--2----2----0----0-----0----0----0---0----|
D|-0---------0----------2---------2---------|

My dear, I'll be there soon

E|-------1--------------3-----------0---------0------|
B|------3--3-----------0--0--------1--1-1----1-1-1---|
G|-----2----2---------0----0------0----0----0---0----|
D|----0--------------0-----------2---------2---------|

It's a qui - et starry place

E|--------1---------3----------0---------0------|
B|-------3--3------0--0-------1--1-1----1-1-1---|
G|------2----2----0----0-----0----0----0---0----|
D|-----0---------0----------2---------2---------|

times we're swallowed up in

E|------------1---------3-------|
B|-----------3--3------0--0----|
G|----------2----2----0----0---|
D|---------0---------0----------|
space we're here a million miles away

Bb Bb A#m A#m


Repeat for each verse

Tab par , 11 juil. 2018

Commentaires (0)

Aucun commentaire :(
Besoin d'aide, envie de partager une astuce, ou simplement de parler de cette chanson? Commencez la discussion!

Commenter
Partagez vos rythmiques, vos accords ou vos astuces pour jouer cette tablature!

Top Tabs et Accords de Ricky Montgomery, ne manquez pas ces chansons!

A propos de cette chanson: The Moon Song (cover)

Pas d'information sur cette chanson.

As-tu repris The Moon Song (cover) sur ton Ukulélé ? Partage ta reprise!
Ajouter une reprise