America Tab par Razorlight

0 Accords utilisés dans la chanson:

6.5/10
ImprimerAjouter cette tab à votre SongBook

Voir ces acccords pour le Baryton

Changer de tonalité:
Accords:
Epingler les accords pendant le scroll

Tablature / Chords (Intro)

Font size: A- A A+

Artiste: 
Album: 
Année:  2006
Tonalité: inconnuAccords
S                     P                       
A-|---------------------5-----2-----------------------------|
E-|-----0------------2---------------------0----------------|
C-|--0--------0---2------------------------------0----------|
G-|--------0---------------0-----2--2---0-----0-----0-------|
S
A-|--------3------------------5-----2-----2-----------------|
E-|-----0--------0---------2--------------------0-----------|
C-|--0--------------0---2--------------2--------------0-----|
G-|-----------0------------------0-----------2-----0-----0--|
H P H
A-|-----3--------3-----2-----2--------5--2---3---2---3------|
E-|--------3--0-----------2--------0------------------------|
C-|--0--------------2-----------2---------------------------|
G-|-----------------------------------------------------0---|
S
A-|------------------------------2--------------------------|
E-|-----0-----0---------2-----2--------2--3--0-----0--------|
C-|--0-----------0---2--------------2-----------0-----------|
G-|--------0---------------0--------------------------------|

⇢ Cette tablature ne vous convient pas? Voir 1 autre(s) version(s)

Tab par , 26 mai 2012

Commentaires (0)

Aucun commentaire :(
Besoin d'aide, envie de partager une astuce, ou simplement de parler de cette chanson? Commencez la discussion!

Commenter
Partagez vos rythmiques, vos accords ou vos astuces pour jouer cette tablature!

A propos de cette chanson: America

Pas d'information sur cette chanson.

As-tu repris America sur ton Ukulélé ? Partage ta reprise!
Ajouter une reprise