Momma Sed Tab par Puscifer

Tablature Ukulélé sans accords.

ImprimerAjouter cette tab à votre SongBook
Tablature / ChordsFont size: A- A A+

Vous ne savez pas comment lire une tablature ou un accord ?
Ne manquez pas nos cours:

Comment lire une tablature pour ukulélé
Comment lire un accord

INTRO
A|----------8-6-8--|-6-8-6-5-1-3-----|
E|-3---------------|-------------6---|
C|-----------------|-----------------|
G|---0h1p0---------|-----------------|
VERSE
A|-3-X-1-1-1-1-1h3-X-1-1--|
E|-3-X-1-1-1-1-1h3-X-1-1--|
C|-5-X-3-3-3-3-3-5-X-3-3--|
G|------------------------|
BREAK
A|-1-X-1-1-1-1-1-1--|
E|-1-X-1-1-1-1-1-1--|
C|-3-X-3-3-3-3-3-3--|
G|-1-X-1-1-1-1-1-1--|
"Changes come..."
A|-3-/-6-/-1-/-3--|
E|-3-/-6-/-1-/-3--|
C|-5---8---3---5--|
G|-5-/-8-/-3-/-5--|

 

Commentaires (0)
Aucun commentaire :(
Besoin d'aide, envie de partager une astuce, ou simplement de parler de cette chanson? Commencez la discussion!

Vous devez être connecté pour participer à la discussion
ou Inscription

 

A propos de cette chanson

Pas d'information sur cette chanson.