Peaches Tab par Presidents Of The USA

4 Accords utilisés dans la chanson: C#, E, A, G#

Ajouter cette tab à votre SongBook
Tablature / ChordsFont size: A- A A+

Vous ne savez pas comment lire une tablature ou un accord ?
Ne manquez pas nos cours:

Comment lire une tablature pour ukulélé
Comment lire un accord

Intro
C# C#
A|---------------------------------------------------------|
E|---------------------------------------------------------|
C|-6--6--6-6-5----3-3-3-5-3-1----6~/10--10-8--3-3-3-5-3-1--|
G|---------------------------------------------------------|

Chorus
Movin' to the country, gonna eat a lot of peaches
A|-------------------------------------------------|
E|-------------------------------------------------|
C|-6------6--6---6---5----------3---3-3---5--3--1--|
G|-------------------------------------------------|
Movin' to the country, gonna eat a lot of peaches
A|-------------------------------------------------|
E|-------------------------------------------------|
C|-6~~~~/10------10--8----3-----3-----3---5--3--1--|
G|-------------------------------------------------|
Movin' to the country, gonna eat a lot of peaches
A|-9------9--9---9---8----------6---6-6---8--6--4--|
E|-9------9--9---9---8----------6---6-6---8--6--4--|
C|-6------6--6---6---5----------3---3-3---5--3--1--|
G|-6------6--6---6---5----------3---3-3---5--3--1--|
Movin' to the country, gonna eat a lot of peaches
A|-9~~~~~/13-----13--11---6-----6-----6---8--6--4--|
E|-9-~~~~/13-----13--11---6-----6-----6---8--6--4--|
C|-6~~~~~/10-----10--8----3-----3-----3---5--3--1--|
G|-6~~~~~/10-----10--8----3-----3-----3---5--3--1--|


Verse 1
E E A A E E
Peaches come from a can,
A A E E
they were put there by a man,
A A G# G#
in a factory downtown
E E A A E E
If I had my little way,
A A E E
I'd eat peaches every day
A A G# G#
Sun-soakin' bulges in the shade


Chorus


Verse 2
E E A A E E
Take a little nap where the roots all twist
A A E E
Squished a rotten peach in my fist
A A G# G#
And dreamed about you, woman,
E E A A E E
I poked my finger down inside
A A E E
Make a little room for an ant to hide
A A G# G#
Nature's candy in my hand or can or a pie


Bridge
A|-x-x-x-x-x-x-x-x-x-x-x-x-x-x-x-x--|
E|-9-9-9-7-7-7-7-7-6-6-6-7-7-7-7-7--|
C|-8-8-8-6-6-6-6-6-5-5-5-6-6-6-6-6--| 4x
G|-6-6-6-4-4-4-4-4-3-3-3-4-4-4-4-4--|

Millions of peaches, peaches for me
A|-x--x-----x--x--x-x-x-x-x--x----x---x-x-x-x-x--|
E|-9--9-----9--7--7-7-7-7-6--6----6---7-7-7-7-7--|
C|-8--8-----8--6--6-6-6-6-5--5----5---6-6-6-6-6--|
G|-6--6-----6--4--4-4-4-4-3--3----3---4-4-4-4-4--|\
Millions of peaches, peaches for free >2x
A|-x--x-----x--x--x-x-x-x-x--x----x---x-x-x-x-x--|/
E|-9--9-----9--7--7-7-7-7-6--6----6---7-7-7-7-7--|
C|-8--8-----8--6--6-6-6-6-5--5----5---6-6-6-6-6--|
G|-6--6-----6--4--4-4-4-4-3--3----3---4-4-4-4-4--|

Look out!

A|-x-x-x-x-x-x-x-x-x-x-x-x-x-x-x-x--|
E|-9-9-9-7-7-7-7-7-6-6-6-7-7-7-7-7--|
C|-8-8-8-6-6-6-6-6-5-5-5-6-6-6-6-6--| 6x
G|-6-6-6-4-4-4-4-4-3-3-3-4-4-4-4-4--|

Millions of peaches, peaches for me
A|-x--x-----x--x--x-x-x-x-x--x----x---x-x-x-x-x--|
E|-9--9-----9--7--7-7-7-7-6--6----6---7-7-7-7-7--|
C|-8--8-----8--6--6-6-6-6-5--5----5---6-6-6-6-6--|
G|-6--6-----6--4--4-4-4-4-3--3----3---4-4-4-4-4--|\
Millions of peaches, peaches for free >2x
A|-x--x-----x--x--x-x-x-x-x--x----x---x-x-x-x-x--|/
E|-9--9-----9--7--7-7-7-7-6--6----6---7-7-7-7-7--|
C|-8--8-----8--6--6-6-6-6-5--5----5---6-6-6-6-6--|
G|-6--6-----6--4--4-4-4-4-3--3----3---4-4-4-4-4--|

Look out!
A|--------x----|
E|--------9/---|
C|--------8/---|
G|--------6/---|

 

Commentaires (0)
Aucun commentaire :(
Besoin d'aide, envie de partager une astuce, ou simplement de parler de cette chanson? Commencez la discussion!

Vous devez être connecté pour participer à la discussion
ou Inscription

 

A propos de cette chanson

Pas d'information sur cette chanson.