Want You Gone Tab par Portal

Tablature Ukulélé sans accords.

6/10
ImprimerAjouter cette tab à votre SongBook

Tablature / Chords (Chanson entière)

Font size: A- A A+

Artiste: 
Album:  inconnu
Tonalité: inconnuTablature (sans accords)
# Verse: (repeat)
A |-7-7-6--|-5-5-8--|
E |5-5-5---|5-5-5---|
C |--------|--------|
G |--------|--------|

A |-7-7-6--|-5-5------|
E |5-5-5---|5-5--0-0-7|
C |--------|----4-4-8-|
G |--------|----------|

A |-7-7-6--|-5-5-8--|
E |5-5-5---|5-5-5---|
C |--------|--------|
G |--------|--------|

A |-7-7-6--|-5-5--------|
E |5-5-5---|5-5-----7-9-|
C |--------|-----6-8----|
G |--------|------------|

# Chorus:
|-9-|-9-|-9-|-9-|
|-9-|-9-|-9-|11-| (x3)
|10-|10-|10-|11-|
|11-|11-|11-|11-|

|-9-|-7-|(-4-)
|10-|-7-|(-5-)
|-9-|-8-|(-4-)
|11-|-9-|(-6-)

# Verse 2: (same as above)


# Chorus 2: (same as above)


# Verse 3: (same as above)


# Chorus 3:

|-9-|-9-|-9-|-9-|
|-9-|-9-|-9-|11-| (x3)
|10-|10-|10-|11-|
|11-|11-|11-|11-|

|-9-|-7-|-4-|-4-|
|10-|-7-|-5-|-5-| (x3)
|-9-|-8-|-4-|-6-|
|11-|-9-|-6-|-6-|

Tab par , 17 nov. 2013

Commentaires (1)

Commenter
Partagez vos rythmiques, vos accords ou vos astuces pour jouer cette tablature!
Filtrer par:
delphinemaple375 avatar
The music's good, but the way you move makes me want to rewrite the rhythm of the night with a touch more... you. f1nd me on delphinemaple_mooo_com change _ to dot
11 Jul 2024
Commentaire

A propos de cette chanson: Want You Gone

Pas d'information sur cette chanson.

As-tu repris Want You Gone sur ton Ukulélé ? Partage ta reprise!
Ajouter une reprise