Sylph Set On Fire Tab par Phemiec

Tablature Ukulélé sans accords.

Ajouter cette tab à votre SongBook
Tablature / ChordsFont size: A- A A+

Vous ne savez pas comment lire une tablature ou un accord ?
Ne manquez pas nos cours:

Comment lire une tablature pour ukulélé
Comment lire un accord

A|---2-----2---|---5-----5---|---2-----2---|---5-----|
E|-------------|-3-----------|-------------|-3-------|
C|-4-----------|-------------|-4-----------|---------|
G|-1---1-1---1-|-4---4-4---4-|-1---1-1---1-|-4---4-4-|

A|---2-----2---|---5-----5---|---2-----2---|---5-----|---2-----2---|---5-----5---|---2-----2---|---5-----|
E|-------------|-3-----------|-------------|-3-------|-------------|-3-----------|-------------|-3-------|
C|-4-----------|-------------|-4-----------|---------|-4-----------|-------------|-4-----------|---------|
G|-1---1-1---1-|-4---4-4---4-|-1---1-1---1-|-4---4-4-|-1---1-1---1-|-4---4-4---4-|-1---1-1---1-|-4---4-4-|

A|---7---|---5---|---2-----2---|---7---|---5---|---2-----2---|---7---|---5---|---2-----2---|
E|-5-----|-3-----|-------------|-5-----|-3-----|-------------|-5-----|-3-----|-------------|
C|-------|-------|-4-----------|-------|-------|-4-----------|-------|-------|-4-----------|
G|-6---6-|-4---4-|-1---1-1---1-|-6---6-|-4---4-|-1---1-1---1-|-6---6-|-4---4-|-1---1-1---1-|

A|---7---|---5---|---2-----2---|---2-----|
E|-5-----|-3-----|-------------|---------|
C|-------|-------|-4-----------|---------|
G|-6---6-|-4---4-|-1---1-1---1-|-1---1-1-|
A|-2-2-2-2-2-2-|-5-5-5-5-5-5-|-2-2-2-2-2-2-|-5-5-5-5-5-5-|
E|-0-0-0-0-0-0-|-3-3-3-3-3-3-|-0-0-0-0-0-0-|-3-3-3-3-3-3-|
C|-4-4-4-4-4-4-|-7-7-7-7-7-7-|-4-4-4-4-4-4-|-7-7-7-7-7-7-|
G|-1-1-1-1-1-1-|-4-4-4-4-4-4-|-1-1-1-1-1-1-|-4-4-4-4-4-4-|
A|-7-7-7-5-5-5-|-2-2-2-2-2-2-|-7-7-7-5-5-5-|-2-2-2-2-2-2-|-2-2-2-2-|
E|-5-5-5-3-3-3-|-0-0-0-0-0-0-|-5-5-5-3-3-3-|-0-0-0-0-0-0-|-0-0-0-0-|
C|-9-9-9-7-7-7-|-4-4-4-4-4-4-|-9-9-9-7-7-7-|-4-4-4-4-4-4-|-4-4-4-4-|
G|-6-6-6-4-4-4-|-1-1-1-1-1-1-|-6-6-6-4-4-4-|-1-1-1-1-1-1-|-1-1-1-1-|

A|---2-----2---|---5-----5---|---2-----2---|---5-----|
E|-------------|-3-----------|-------------|-3-------|
C|-4-----------|-------------|-4-----------|---------|
G|-1---1-1---1-|-4---4-4---4-|-1---1-1---1-|-4---4-4-|

A|---2-----2---|---5-----5---|---2-----2---|---5-----|---2-----2---|---5-----5---|---2-----2---|---5-----|
E|-------------|-3-----------|-------------|-3-------|-------------|-3-----------|-------------|-3-------|
C|-4-----------|-------------|-4-----------|---------|-4-----------|-------------|-4-----------|---------|
G|-1---1-1---1-|-4---4-4---4-|-1---1-1---1-|-4---4-4-|-1---1-1---1-|-4---4-4---4-|-1---1-1---1-|-4---4-4-|

A|---7---|---5---|---2-----2---|---7---|---5---|---2-----2---|---7---|---5---|---2-----2---|
E|-5-----|-3-----|-------------|-5-----|-3-----|-------------|-5-----|-3-----|-------------|
C|-------|-------|-4-----------|-------|-------|-4-----------|-------|-------|-4-----------|
G|-6---6-|-4---4-|-1---1-1---1-|-6---6-|-4---4-|-1---1-1---1-|-6---6-|-4---4-|-1---1-1---1-|

A|---7---|---5---|---2-----2---|---2-----|
E|-5-----|-3-----|-------------|---------|
C|-------|-------|-4-----------|---------|
G|-6---6-|-4---4-|-1---1-1---1-|-1---1-1-|
A|-2-2-2-2-2-2-|-5-5-5-5-5-5-|-2-2-2-2-2-2-|-5-5-5-5-5-5-|
E|-0-0-0-0-0-0-|-3-3-3-3-3-3-|-0-0-0-0-0-0-|-3-3-3-3-3-3-|
C|-4-4-4-4-4-4-|-7-7-7-7-7-7-|-4-4-4-4-4-4-|-7-7-7-7-7-7-|
G|-1-1-1-1-1-1-|-4-4-4-4-4-4-|-1-1-1-1-1-1-|-4-4-4-4-4-4-|
A|-7-7-7-5-5-5-|-2-2-2-2-2-2-|-8-8-8-6-6-6-|-2-2-2-2-2-2-|-2-2-2-2-|
E|-5-5-5-3-3-3-|-0-0-0-0-0-0-|-6-6-6-4-4-4-|-0-0-0-0-0-0-|-0-0-0-0-|
C|-9-9-9-7-7-7-|-4-4-4-4-4-4-|-10-10-10-8-8-8-|-4-4-4-4-4-4-|-4-4-4-4-|
G|-6-6-6-4-4-4-|-1-1-1-1-1-1-|-7-7-7-5-5-5-|-1-1-1-1-1-1-|-1-1-1-1-|

A|---2-----2---|---5-----5---|---2-----2---|---5---5---|---7---|---5---|---2-----2---|---7---|---5---|---|
E|-------------|-3-----------|-------------|-3---------|-5-----|-3-----|-------------|-5-----|-3-----|---|
C|-4-----------|-------------|-4-----------|-----------|-------|-------|-4-----------|-------|-------|-4-|
G|-1---1-1---1-|-4---4-4---4-|-1---1-1---1-|-4---4---4-|-6---6-|-4---4-|-1---1-1---1-|-6---6-|-4---4-|-4-|

 

Commentaires (0)
Aucun commentaire :(
Besoin d'aide, envie de partager une astuce, ou simplement de parler de cette chanson? Commencez la discussion!

Vous devez être connecté pour participer à la discussion
ou Inscription

 

A propos de cette chanson

Pas d'information sur cette chanson.