Changling Tab par Phemiec

Tablature Ukulélé sans accords.

Ajouter cette tab à votre SongBook
Tablature / ChordsFont size: A- A A+

Vous ne savez pas comment lire une tablature ou un accord ?
Ne manquez pas nos cours:

Comment lire une tablature pour ukulélé
Comment lire un accord

Made this tab so I wouldn't forget about it

A|------------ ------------ ----------------|
E|----0------- X2 ---0------- X2 ----0-----------| X4
C|-4----4---4- -2----2---2- -0----0----0----|
G|-0-0-0-0--0- -0-0-0-0--0- -0-0-0-0---0----|

Repeat whole thing until the I think I am a Changling part

A|------------ ------------ -------------------|
E|----0------- X2 ----0------- X2 ----0--------------|
C|-2----2----- -1----1---1- -0----0---0--------|
G|-0-0-0-0---- -0-0-0-0--0- -0-0-0-0--0--------|

 

Commentaires (0)
Aucun commentaire :(
Besoin d'aide, envie de partager une astuce, ou simplement de parler de cette chanson? Commencez la discussion!

Vous devez être connecté pour participer à la discussion
ou Inscription

 

A propos de cette chanson

Pas d'information sur cette chanson.