Karma (Solo) Tab par Parkway Drive

Tablature Ukulélé sans accords.

Ajouter cette tab à votre SongBook
Tablature / ChordsFont size: A- A A+

Vous ne savez pas comment lire une tablature ou un accord ?
Ne manquez pas nos cours:

Comment lire une tablature pour ukulélé
Comment lire un accord

# Listen to the original song for the right rythm

A|-------8------8--4-6-8--6-4-3--------8------8--4-6-8--6-4-6--4--3-----------|
E|----6-----6-----------------------6-----6-----------------------------------|x4
C|-5----------5------------------5----------5---------------------------------|
G|----------------------------------------------------------------------------|

A|-4-8-4------4-8-4------3-4-3-------3--4-6-4-3----4-6-4-3--------------------|
E|-------6----------6----------6-4-6------------6----------6------------------|
C|---------5----------5-------------------------------------------------------|
G|----------------------------------------------------------------------------|

A|-4-8-4------4-8-4------3-4-3-------3--4-6-4-3----3-4-11-4-3-1-11-4-3-1-11---|
E|-------6----------6----------6-4-6------------6-----------------------------|
C|---------5----------5-------------------------------------------------------|
G|----------------------------------------------------------------------------|

 

Commentaires (2)
Vous devez être connecté pour participer à la discussion
ou Inscription

 

Ajking616 avatar
flag for US(ISO2) (Lockport)
Great work. Was looking for the intro to Wild Eyes, but this is just as good. Thanks.
01 Apr 2017
Ajking616 avatar
flag for US(ISO2) (Lockport)
Still trying to get the timing down, but otherwise great work. Been trying to do a Wild Eyes intro for weeks now. Will be sure to post it once complete.
26 Mar 2017
A propos de cette chanson

Pas d'information sur cette chanson.